Frankenstein Drag Queens From Planet 13 - Horray For Horrorwood Chords & Tabs

 

Horray For Horrorwood Chords & Tabs

Frankenstein Drag Queens From Planet 13 Chords & Tabs

Version: 1 Type: Bass Tab 0 ratings
1 star 2 stars 3 stars 4 stars 5 stars
comments

Horray For Horrorwood Bass Tab

   
----------------------------------------------------------------------------
			     Horray for horrorwood - FDQFP 13
----------------------------------------------------------------------------

Tabbed By : Ding
e-mail: devilishdude22@hotmail.com

Tuning: STANDARD

Like many of the murderdolls songs horray for horrorwood is wat you would know call dead
in hollywood. When wednesday went to murderdolls he used some of the FDQ songs with them,
so here you go the original verssion of dead in hollywood.

Intro and verse

G|---------| play till verse come in and in verse pla 4 times
D|---------|
A|---------|
E|-0-0-1-0-|

second part of verse
[ Tab from: http://www.guitartabs.cc/tabs/f/frankenstein_drag_queens_from_planet_13/horray_for_horrorwood_btab.html ]
G|----------------------------------| play twice
D|----------------------------------|
A|----------------------------------|
E|-0-0-1-0-0-0-1-0------------------|

pre chourus

G|-----------------------------------------------| play twice
D|-----------------------------------------------|
A|-----------------------------------------------|
E|-3-3-3-3-3-3-3-3-2-2-2-2-1-1-1-1-0-0-1-0-------|

Chourus

G|---------------------------------------|
D|---------------------------------------|
A|-----3-3---------------3-3-----7-7-----|
E|-0-0-----3-3-5-7---0-0-----3-3---------|

Yes so there we go horray for horrorwood. hmm i wander were ive heard this song befor oh 
its also murdrdolls dead in hollywood. cya peeps enjoy it.
Any comment devilishdude22@hotmail.com
Comments