Frankenstein Drag Queens From Planet 13 - Evil Is Good Chords & Tabs

 

Evil Is Good Chords & Tabs

Frankenstein Drag Queens From Planet 13 Chords & Tabs

Version: 1 Type: Tab

Evil Is Good Tab

Intro
e----------------------------------------------|
B----------------------------------------------|
G----------------------------------------------|
D-4--5-4-5--4-2--------4-5-4-5-4-2-4--5-4-2----| x2
A-2--3-2-3--2-0-4------2-3-2-3-2-0-2--3-2-0-4--|
E---------------2---------------------------2--|

Verse
e---------------------------------------------|
B---------------------------------------------|
G---------------------------------------------|
D-4--5-4-5--4-2--------4-5-4-5-4-2-4--5-4-2---|
A-2--3-2-3--2-0-4------2-3-2-3-2-0-2--3-2-0-4-|
E---------------2---------------------------2-|

e---------------------------------------------|
B---------------------------------------------|
G-------------------------------------5-4-2---|
D-4--5-4-5--4-2--------4-5-4-5-4-2-4--5-4-2-4-|
A-2--3-2-3--2-0-4------2-3-2-3-2-0-2--3-2-0-4-|
E---------------2---------------------------2-|

During Solo play
e---------------------------------------------|
B---------------------------------------------|
G---------------------------------------------|
D-4--5-4-5--4-2--------4-5-4-5-4-2-4--5-4-2---|
A-2--3-2-3--2-0-4------2-3-2-3-2-0-2--3-2-0-4-|
E---------------2---------------------------2-|

e---------------------------------------------|
B---------------------------------------------|
G---------------------------------------------|
D-4--5-4-5--4-2--------4-5-4-5-4-2-4--5-4-2---|
A-2--3-2-3--2-0-4------2-3-2-3-2-0-2--3-2-0-4-|
E---------------2---------------------------2-|

Verse
e---------------------------------------------|
B---------------------------------------------|
G---------------------------------------------|
D-4--5-4-5--4-2--------4-5-4-5-4-2-4--5-4-2---|
A-2--3-2-3--2-0-4------2-3-2-3-2-0-2--3-2-0-4-|
E---------------2---------------------------2-|

e---------------------------------------------|
B---------------------------------------------|
G-------------------------------------5-4-2---|
D-4--5-4-5--4-2--------4-5-4-5-4-2-4--5-4-2-4-|
A-2--3-2-3--2-0-4------2-3-2-3-2-0-2--3-2-0-4-|
E---------------2---------------------------2-|

Chorus
e------------------------------------------------------------|
B------------------------------------------------------------|
G------------------------------------------------------------|
D-9-9-9-9-9-9----7-7-7-7-7-7-7----4----4-5-4-2-4--2-5-4-2-4--|
A-9-9-9-9-9-9----7-7-7-7-7-7-7----4----2-3-2-0-2--0-3-2-0-4--|
E-7-7-7-7-7-7----5-5-5-5-5-5-5----2--2--------------------2--|
[ Tab from: http://www.guitartabs.cc/tabs/f/frankenstein_drag_queens_from_planet_13/evil_is_good_tab.html ]
e-----------------------------------------------------|
B-----------------------------------------------------|
G-----------------------------------------------------|
D-9-9-9-9-9-9---7-7-7-7-7-7-7---9-9-9-9-9-9---7--7-7--|
A-9-9-9-9-9-9---7-7-7-7-7-7-7---9-9-9-9-9-9---7--7-7--|
E-7-7-7-7-7-7---5-5-5-5-5-5-5---7-7-7-7-7-7---5--5-5--|

During Solo 2 play
e-------------------------------------------------|
B-------------------------------------------------|
G-------------------------------------------------|
D-4--5-4-5--4-2--------4-5-4-5-4-2-4--5-4-2-------|
A-2--3-2-3--2-0-4------2-3-2-3-2-0-2--3-2-0-4-----|
E---------------2---------------------------------|

e-------------------------------------------------|
B-------------------------------------------------|
G-----------------------------------------5-4-2---|
D-4--5-4-5--4-2--------4--5-4-5-4-2-4---2-5-4-2-4-|
A-2--3-2-3--2-0-4------2--3-2-3-2-0-2---0-3-2-0-4-|
E---------------2-------------------------------2-|

Verse
e---------------------------------------------|
B---------------------------------------------|
G---------------------------------------------|
D-4--5-4-5--4-2--------4-5-4-5-4-2-4--5-4-2---|
A-2--3-2-3--2-0-4------2-3-2-3-2-0-2--3-2-0-4-|
E---------------2---------------------------2-|

e---------------------------------------------|
B---------------------------------------------|
G-------------------------------------5-4-2---|
D-4--5-4-5--4-2--------4-5-4-5-4-2-4--5-4-2-4-|
A-2--3-2-3--2-0-4------2-3-2-3-2-0-2--3-2-0-4-|
E---------------2---------------------------2-|

Chorus
e------------------------------------------------------------|
B------------------------------------------------------------|
G------------------------------------------------------------|
D-9-9-9-9-9-9----7-7-7-7-7-7-7----4----4-5-4-2-4--2-5-4-2-4--|
A-9-9-9-9-9-9----7-7-7-7-7-7-7----4----2-3-2-0-2--0-3-2-0-4--|
E-7-7-7-7-7-7----5-5-5-5-5-5-5----2--2--------------------2--|

e-----------------------------------------------------|
B-----------------------------------------------------|
G-----------------------------------------------------|
D-9-9-9-9-9-9---7-7-7-7-7-7-7---9-9-9-9-9-9---7--7-7--|
A-9-9-9-9-9-9---7-7-7-7-7-7-7---9-9-9-9-9-9---7--7-7--|
E-7-7-7-7-7-7---5-5-5-5-5-5-5---7-7-7-7-7-7---5--5-5--|

During Solo 3 play (x2)
e-------------------------------------------------|
B-------------------------------------------------|
G-------------------------------------------------|
D-4--5-4-5--4-2--------4-5-4-5-4-2-4--5-4-2-------|
A-2--3-2-3--2-0-4------2-3-2-3-2-0-2--3-2-0-4-----|
E---------------2---------------------------------|

e-------------------------------------------------|
B-------------------------------------------------|
G-------------------------------------------------|
D-4--5-4-5--4-2--------4--5-4-5-4-2-4---5-4-2-----|
A-2--3-2-3--2-0-4------2--3-2-3-2-0-2---3-2-0-4---|
E---------------2-----------------------------2---|

Sorry i didn't put the solos in.. if you want them just comment and i'll put them in.