Frankenbok - Dont Call Me Baby Chords & Tabs

 

Dont Call Me Baby Chords & Tabs

Frankenbok Chords & Tabs

Version: 1 Type: Chords 0 ratings
1 star 2 stars 3 stars 4 stars 5 stars
comments

Dont Call Me Baby Chords

Frankenbok - "Don't Call Me Baby" - Bass Tab
Tabbed by Jared Bridgeman 

Common Time(4/4)
Standard Tuning(EADG)

INTRO/MIDDLE:
                              (x7)
|-------|---------------------------|-------------------------|
|-------|*-------3-3---------3-3---*|-------------------------|
|-r-r-r-|*-1---1-----4-1---1-----4-*|-1-1-1-1-1-1-1-1-1-1-1-1-|
|-------|---------------------------|-------------------------|
  2 3 4    1 & a 2 e & 3 & a 4 e &    1 & 2 & 3 e & a 4 e & a

               .                          (x4)
|--------------3---3-1---|---------------.----|
|*-------3-3-----------3-|-------1-1-1-3-3---*|
|*-1---1-----4-----------|-3---3-------------*|
|------------------------|-----------------1--|
   1 & a 2 e & 3 & a 4 &   1 & a 2 e & 3 & 4

VERSES 1 & 2:
               .      (x7)
|--------------3---3-1----|-------------------------|
|*-------3-3-----------3-*|-------------------------|
|*-1---1-----4-----------*|-1-r-1-1-r-1-1-r-1-1-r-1-|
|-------------------------|-------------------------|
   1 & a 2 e & 3 & a 4 &    1 & a 2 & a 3 & a 4 & a
[ Tab from: http://www.guitartabs.cc/tabs/f/frankenbok/dont_call_me_baby_crd.html ]
CHORUS:
               .                          (x8)
|--------------3---3-1---|---------------.----|
|*-------3-3-----------3-|-------1-1-1-3-3---*|
|*-1---1-----4-----------|-3---3-------------*|
|------------------------|-----------------1--|
   1 & a 2 e & 3 & a 4 &   1 & a 2 e & 3 & 4

            (x3)
|---------------|-------------|-------------------|
|*-------------*|-------------|-------1-----------|
|*-1-r-r-r-1-1-*|-1-r-r-r-1-3-|-3-r---------------|
|---------------|-------------|---------4-4-1-4-1-|
   1 2 3 4 & a    1 2 3 4 & a   1 2 & a 3 e & 4 &

VERSE 3:
            (x6)
|---------------|-------------|-------------------|
|*-------------*|-------------|-------1-----------|
|*-1-r-r-r-1-1-*|-1-r-r-r-1-3-|-3-r---------------|
|---------------|-------------|---------4-4-1-4-1-|
   1 2 3 4 & a    1 2 3 4 & a   1 2 & a 3 e & 4 &

END:
               .                         (x12)
|--------------3---3-1---|---------------.----|
|*-------3-3-----------3-|-------1-1-1-3-3---*|
|*-1---1-----4-----------|-3---3-------------*|
|------------------------|-----------------1--|
   1 & a 2 e & 3 & a 4 &   1 & a 2 e & 3 & 4
Comments