Frank Zappa - Would You Like A Snack Chords & Tabs

 

Would You Like A Snack Chords & Tabs

Frank Zappa Chords & Tabs

Version: 1 Type: Tab

Would You Like A Snack Tab

   
----------------------------------------------------------------------------
                     Would You Like a Snack? - Frank Zappa
                                    From:
                                "200 Motels"
----------------------------------------------------------------------------
Tabbed by: Kennezar (Kenneth Dale Harris IV)
Email: kenny4@kdharris.net

Tuning: Standard

e|-0-3------0-----0~--3~----|---------------------------13---------13--13~|
B|-----3/5~---1/3--------3~-|-----15~--------15~--------------------------|
G|--------------------------|-3-0----15-12-------15-12-----15-12-15--15---|
D|--------------------------|--------------15----------15-----------------|
A|--------------------------|---------------------------------------------|
E|--------------------------|---------------------------------------------|
[ Tab from: http://www.guitartabs.cc/tabs/f/frank_zappa/would_you_like_a_snack_tab.html ]
e|----------------------------|-15~~--13-13-12-12-10-10-8-8------|
B|-10-11------------15-11-13~-|----------------------------------|
G|---------10----12-----------|----------------------------------|
D|----------------------------|----------------------------------|
A|----------------------------|----------------------------------|
E|----------------------------|----------------------------------|

e|-6~--4--3-4-3----------------------12-10-8-7-8~~~--///7~~------|
B|--------------6-8-6-4-6--///7~~--------------------------------|
G|---------------------------------------------------------------|
D|---------------------------------------------------------------|
A|---------------------------------------------------------------|
E|---------------------------------------------------------------|

"Went on the road
for a month touring. 
What a drag
You gotta go
even if you'd rather be at home.
Flaked out
in Hollywood.
drove to Inglewood and then we dumped
all our shit into the plane at five-O-three." 

"What's it gonna be?"  


| /  slide up
| \  slide down
| h  hammer-on
| p  pull-off
| ~  vibrato
| +  harmonic
| x  Mute note
============================================================================