Frank Zappa - Uncle Remus Chords & Tabs

 

Uncle Remus Chords & Tabs

Frank Zappa Chords & Tabs

Version: 1 Type: Tab 0 ratings
1 star 2 stars 3 stars 4 stars 5 stars
comments

Uncle Remus Tab

   
Uncle Remus (Frank Zappa)

Dm	Dm/C	            G7/B  G7/Bb
Whoa, are we moving too slow? 
Gm                  Bb 	Gm         Bb
Have you seen us, 	Uncle Remus?
F  			     C7	 
We look pretty sharp in these clothes (yes, we do)
Dm			     G7	
Unless we get sprayed with a hose

F			A
It ain't bad in the day 	If they squirt it your way
Dm			    G7	
'cept in the wintah, when it's froze
G7			     Dm	
And it's hard if it hits, on your nose (on your nose)
[ Tab from: http://www.guitartabs.cc/tabs/f/frank_zappa/uncle_remus_tab.html ]
Solo
------11𨖱1---------------------------------------------------64---------
-11-----------------9𧯡----11---------------11------------7----------74--
----------------------------------11---811------11𨃊-68----------------
-------------------------------------------------------8--------------------
----------------------------------------------------------------------------
----------------------------------------------------------------------------

--------------------64--
--------47--------------
-66---------6-----------
---------------------------
---------------------------
-----------------------------

Puis pentatonique de Mi en 12

Just keep your nose
To the grindstone they say
Will that redeem us, uncle reemus? 
I can't wait til mah 'fro is full grown
I'll just throw away my doo-rag at home

I'll take a drive to
Beverly hills
Just before dawn
And knock the little jockeys
Off the rich peoples lawn
And before they get up
I'll be gone
(I'll be gone)
Before they get up
I'll be knockin' the jockeys off the lawn
(down in the dew)
Comments