Frank Zappa - Son Of Mr Green Genes Chords & Tabs

 

Son Of Mr Green Genes Chords & Tabs

Frank Zappa Chords & Tabs

Version: 1 Type: Tab 0 ratings
1 star 2 stars 3 stars 4 stars 5 stars
comments

Son Of Mr Green Genes Tab

-----------------------------------------------------------------------------
                      Frank Zappa - Son of Mr. Green Genes
-----------------------------------------------------------------------------
Kenneth Dale Harris IV  
(kennezar)
 Standard Tuning

e----------------------|----------------------|-----------------------|-----|
B----------------------|----------------------|-----------------------|-----|
G----9--4~-4-4-4-5-4-5-|----9--4~-4-4-4-5-4---|----9--4~-4-4-4-5---4--|--9-4~
D-7~-------------------|-7~-----------------5-|-7~---------------5----|7----|
A----------------------|----------------------|-----------------------|-----|
E----------------------|----------------------|-----------------------|-----|
[ Tab from: http://www.guitartabs.cc/tabs/f/frank_zappa/son_of_mr_green_genes_tab.html ]
e---------------|-8---10--12--12--12-|           2x
B---------------|--------------------|
G---------------|-5----7--9---9---9--|
D---------------|--------------------|
A-3~---5-5-7-7~-|--------------------|
E---------------|--------------------|

e------------------------------------|
B------------------------------------|
G-2---2--5--4---4-5------------------|
D---3---------5-----7~--7-7-7-5-7-8~-|
A------------------------------------|
E------------------------------------|

e----------------------------------------------|
B-13^15~~~-11-11-------------------------------|
G----------------12p10-10-12^14-12^14----------|
D----------------------------------------------|
A----------------------------------------------|
E----------------------------------------------|
Comments