Frank Zappa - Gumbo Variations Chords & Tabs

 

Gumbo Variations Chords & Tabs

Frank Zappa Chords & Tabs

Version: 1 Type: Bass Tab

Gumbo Variations Bass Tab

   
Standard Tuning: E A D G

|----------10-12-10--------10-12|
|-----/12-----------12--12------|
|-10----------------------------|
|-------------------------------|

|--------10--12-10-----12-10----| X2
|----12------------12--------12-|
|-10----------------------------|
|-------------------------------|


|-----12-10---------------------|
|-----------12--10-8------------|
|-10-----------------10--8-5----|
|-------------------------------|

|--------10--12-10-----12-10----| X3
|-----12-----------12--------12-|
|-10----------------------------|
|-------------------------------|
[ Tab from: http://www.guitartabs.cc/tabs/f/frank_zappa/gumbo_variations_btab.html ]
|-12-10-------------------------|
|-------12--10-8----------------|
|----------------10---8-5-8-----|
|-------------------------------|


|----------10-12-10-------------|X3
|-------12----------12-10-8-----|
|-10-10-------------------------|
|-------------------------------|


|-12-12-14-14-15-15-16-16-17-19-|
|-------------------------------|
|-------------------------------|
|-------------------------------|


And, just for kicks, here is the line at the beginning of the song.

|--------3------10--------------|
|----3-5---5----9---------------|
|-5-----------------------------|
|-------------------------------|

Make sure you pluck 10 and 9 at the same time, and you're all set.