Frank Zappa - Florentine Pogen Chords & Tabs

 

Florentine Pogen Chords & Tabs

Frank Zappa Chords & Tabs

Version: 1 Type: Tab 0 ratings
1 star 2 stars 3 stars 4 stars 5 stars
comments

Florentine Pogen Tab

artist : Frank Zappa
Title  : Florentine Pogen
tabber : Graw_fox


\ = slide down
p = pull off


||-----------------------|------------------------|-------------|---------------|----------|
||.----------------------|------------------------|-------------|---------------|--7---5---|
||-----------------------|------------------------|-------------|---------------|--7---5---|
||.----------------------|------------------------|-------------|---------------|--7---5---|
||-----------------------|-----------0--2--0--0---|-------------|---2---0---x\--|----------|
||-------------0--0--0---|--0--2--3---------------|---0--2--3---|-----------x\--|----------|



|----------------------------|------------------|----------------------|
|---8--7--5--7-----7--8-7-5--|--3--5--3---------|----------------------|
|----------------------------|------------------|----------------------|
|----------------------------|------------------|--2--4--5--4--2--2----|
|----------------------------|------------9--7--|--3--5--6--5--3--3----|
|----------------------------|------------------|--5--7--8--7--5--5----|



|-----------------------------|---------10-10---------|---------------7----------|-----------------|
|------8------8---------------|--3------10-10---------|-----7--8--10-----10-10---|-------7--8------|
|--9------9------7--9--7------|---------11-11---9--9--|--9-----------------------|----9------------|
|-------------------------10--|-----------------------|--------------------------|-----------------|
|-----------------------------|-----------------------|--------------------------|-----------------|
|-----------------------------|-----------------------|--------------------------|-----------------|



|----7--8p7------------|-------------|---------------------------|------------------|
|------------10--------|--7---5------|--8--7--5--7-----7--8-7-5--|--3--5--3---------|
|----------------------|--7---5------|---------------------------|------------------|
|----------------------|--7---5------|---------------------------|------------------|
|------------------x\--|-------------|---------------------------|------------9--7--|
|------------------x\--|-------------|---------------------------|------------------|


[ Tab from: http://www.guitartabs.cc/tabs/f/frank_zappa/florentine_pogen_tab.html ]
|----------------------|--------------8--|--5--------5--------------|---------------------|
|----------------------|-----------------|-----8--5-----8--5-----8--|--5------------------|
|----------------------|-----------------|--------------------7-----|-----7-----5---------|
|--2--4--5--4--2--2----|-----------------|--------------------------|--------7-----5------|
|--3--5--6--5--3--3----|-----------------|--------------------------|---------------------|
|--5--7--8--7--5--5----|-----------------|--------------------------|---------------------|



|-------------------------|------------------------|---------------------|------------------|
|-------------------------|------------------------|---------------------|------------------|
|--------------2----2--4--|-------4--2--4--2--4----|--7----4----------9--|----6--6----------|
|--2--2--2--2--2----2--4--|-------4--2--4--2--4----|--7----4----------9--|----6--6----------|
|--2--2--2--2--0----0--2--|-------2--0--2--0--2----|--5----2----------7--|----4--4----------|
|--0--0--0--0-------------|------------------------|---------------------|------------------|



|------------9-11----------------7-9----------|-------------------------|------------------------|
|----------9------11-----------7-----9--------|-------------------------|------------------------|
|-------10-----------12------8---------10-----|--------------7----7--9--|--9----9--7--9--7--9----|
|----11-----------------13-9--------------11--|--7--7--7--7--7----7--9--|--9----9--7--9--7--9----|
|---------------------------------------------|--7--7--7--7--5----5--7--|--7----7--5--7--5--7----|
|---------------------------------------------|--5--5--5--5-------------|------------------------|



|-------------------------|-----------------------|--------------------------|---------------------------||
|-------------------------|--------------------7--|--7--5--5-----------------|--------------------------.||
|----12----9----------14--|----11--11-------------|-----------8--8--4--4--6--|--6--------4--4------------||
|----12----9----------14--|----11--11-------------|--------------------------|-----7--7-----------------.||
|----10----7----------12--|----9---9--------------|--------------------------|---------------------------||
|-------------------------|-----------------------|--------------------------|-----------------0--0--0---||



there is still just a little piece i need to do, but this would be enough for now
if you have any comments or sugestions for improvement, send to graw_fox@hotmail.com
Comments