Frank Zappa - Dont Eat The Yellow Snow Chords & Tabs

 

Dont Eat The Yellow Snow Chords & Tabs

Frank Zappa Chords & Tabs

Version: 2 Type: Bass Tab

Dont Eat The Yellow Snow Bass Tab

Alright, this song is kinda all over the place, but I'll give it a shot.

Intro (about 12-13 times)
G--7-7-4------------------4-|
D---------7-4-------4--7----|
A--------------5-5----------|
E---------------------------|

Descending Part
G----------------------|
D----------------------|
A--9-8-7---------------|
E----------------------|
[ Tab from: http://www.guitartabs.cc/tabs/f/frank_zappa/dont_eat_the_yellow_snow_btab_ver_2.html ]
Main Riff (listen to the song to get the timing right)
G-------------------------|
D-------------------------|
A--6-6---6--4--2-2---2--4-|
E------6-----------2------|


This is just a basic outline of the song.  Theres a few little fills and tempo changes 
and there, but its all based aroudn this.  You can just mess with this for an idea on how 
play the song.