Frank Zappa - Bobby Brown Chords & Tabs

 

Bobby Brown Chords & Tabs

Frank Zappa Chords & Tabs

Version: 1 Type: Bass Tab

Bobby Brown Bass Tab

Standard Tuning
If it's not right, its pretty damn accurate! Oh, and sorry for the annoying layout, it 
the easiest way to do it, my fault...

Verse:
         "Hey there people I'm Bobby Brown"
G|------|------------------------|
D|-5----|------------------------|
A|--5-0h|2/3-3--3------2/3-3-----|
E|------|------------------------|

"They say I'm the cutest boy in town"
|--------------------------|
|--------------------------|
|--------------------------|
|-4/5-5--5-----4/5-5-------|

"My car is fast, My teeth are shiny"
|------------------------|
|------------------------|
|------------------------|
|-0h1-1--1-----0h1-1-----|

[ Tab from: http://www.guitartabs.cc/tabs/f/frank_zappa/bobby_brown_btab.html ]
"I tell all the..."
|-------------------|
|-4/5-5--5-----4/5-5|
|-------------------|
|-------------------|
Repeat verse once then move onto...

Chorus:
"Oh god I am the American Dream"
|---------------------|
|-2/3-3-3----2/3-3----|
|---------------------|
|---------------------|

"And I do not think I'm too extreme"
|---------------------|
|-1/2-2-2-------------|
|---------------------|
|------------4/5-5----|

"And I'm a handsome son-of-a-bitch"
|------------------|
|-------------5----|
|-4/5-5-5----5-----|
|------------------|

There is no bass on the last line of the chorus, now start again and repeat as necessary.

Any Problems/questions/corrections contact me on piewalker101@hotmail.com, Thanks.