Frank Zappa - Apostrophe Chords & Tabs

 

Apostrophe Chords & Tabs

Frank Zappa Chords & Tabs

Version: 1 Type: Tab 0 ratings
1 star 2 stars 3 stars 4 stars 5 stars
comments

Apostrophe Tab

----------------------------------------------------------------------------
                         APOSTROPHE` - Frank Zappa
----------------------------------------------------------------------------
Kenneth Dale Harris IV
kenny@kdharris.net
Standard Tuning
Introduction       Outro to bass solo             This last                 
e-------------------|-----|-----|-----------|--|part is the  
B-------------------|-----|-----|-----------|--|rythem during 
G-----------2^4^2~~~|-----|-----|7-7-7-6-5-5|--|the bass solo.
D-----0-0-0---------|5-7-2|5-7-2|7-7-7-6-5-5|4~|
A----2---2-0--------|5-7-2|5-7-2|5-5-5-4-3-3|4~|
E-0-3---------------|3-5-0|3-5-0|-----------|2~|
The beginning riff to Zappa's gibberistic solo.


e--------5/7-7-10------------|Repeat as many
B-10p9p7---------109p9p7-----|times as 
G-------9---------------9-7~-|needed.
D----------------------------|
A----------------------------|
E----------------------------|
[ Tab from: http://www.guitartabs.cc/tabs/f/frank_zappa/apostrophe_tab.html ]
Comments