Frank Sinatra - Fly Me To The Moon Chords & Tabs

 

Fly Me To The Moon Chords & Tabs

Frank Sinatra Chords & Tabs

Version: 1 Type: Bass Tab 0 ratings
1 star 2 stars 3 stars 4 stars 5 stars
comments

Fly Me To The Moon Bass Tab

        
Fly Me To The Moon
Frank Sinatra
Standard Tuning

Listen to the song to get the tempo.
For the whole song. 
Just repeat it until the song ends

      
G|---------------|-------------|-------------|-------------|
D|---------------|--0----------|-----------0-|-------------|
A|--0--2--3--4---|-----3--2--0-|-----0--2----|--3--2-------|
E|---------------|-------------|--3----------|--------0--3-|

G|---------------|-------------|-------------|-------------|
D|---------------|-----------3-|--2----------|-------------|
A|--------0--1---|--2--3--5----|-----------2-|--0--2--3--4-|
E|--1--3---------|-------------|-----0--4----|-------------| 
[ Tab from: http://www.guitartabs.cc/tabs/f/frank_sinatra/fly_me_to_the_moon_btab.html ]
G|---------------|--0----------|-----------0-|--2----------|
D|--0--2--3--4---|-----3--2--0-|-----0--2----|-----2-------|
A|---------------|-------------|--3----------|--------0--0-|
E|---------------|-------------|-------------|-------------|

G|---------------|-------------|-----------5-|--4----------|
D|--0--2--3--4---|--5--------0-|-----0--2----|-----3--2----|
A|---------------|--------2----|--3----------|-------------|
E|---------------|-----3-------|-------------|-----------4-|

Ending:

   I      love...             you! 
G|-----------------------------------------------|
D|---7----9--------------------------------------|
A|-----------------6/7-6/7-6/7-3-----------------|
E|-5----7----------------------------------------|
Comments