Frank Klepacki - Hell March Chords & Tabs

 

Hell March Chords & Tabs

Frank Klepacki Chords & Tabs

Version: 1 Type: Tab 0 ratings
1 star 2 stars 3 stars 4 stars 5 stars
comments

Hell March Tab

   
-------------------------------------------------------------------------------
		   Hell March - Frank Kelpacki (Red Alert)
-------------------------------------------------------------------------------
Tabbed by: The BiG MiKE
Email: thebigmike@gmail.com

I can't believe no one has tabbed this awesome song yet :)
If you find any errors let me know.

Tuning: Drop D (DADGBe)

e|----------------------------------------------------------------------------|
B|----------------------------------------------------------------------------|
G|----------------------------------------------------------------------------|
D|--0-0-1-00-3-000-+5-+5-+5-+5-+5-+5--+5-+5-+5-+5-+5-+5--+5-+5-+5-------------|
A|--0-0-1-00-3-000-+5-+5-+5-+5-+5-+5--+5-+5-+5-+5-+5-+5--+5-+5-+5-------------|
D|--0-0-1-00-3-000-+5-+5-+5-+5-+5-+5--+5-+5-+5-+5-+5-+5--+5-+5-+5-------------|
PM  		    .  .  .  .  .  .   .  .  .  .  .  .   .  .  .

e|---------------------------------------------------------------------------|
B|---------------------------------------------------------------------------|
G|---------------------------------------------------------------------------|
D|--0-0-1-00-3-000-+5-+5-+5-+5-+5-+5--/0/3/5/10/5/4/3------------------------|
A|--0-0-1-00-3-000-+5-+5-+5-+5-+5-+5--/0/3/5/10/5/4/3------------------------|
D|--0-0-1-00-3-000-+5-+5-+5-+5-+5-+5--/0/3/5/10/5/4/3------------------------|
PM		    .  .  .  .  .  .

x2

e|----------------------------------------------------------------------------|
B|----------------------------------------------------------------------------|
G|----------------------------------------------------------------------------|
D|--0-0-1-00-3-00-+5-+5------0-0-1-00-3-00-+5-+5------------------------------|
A|--0-0-1-00-3-00-+5-+5------0-0-1-00-3-00-+5-+5------------------------------|
D|--0-0-1-00-3-00-+5-+5------0-0-1-00-3-00-+5-+5------------------------------|
PM	           .  .                     .  .

e|----------------------------------------------------------------------------|
B|----------------------------------------------------------------------------|
G|----------------------------------------------------------------------------|
D|--0-0-1-00-3-00-+5-+5------0-0-1-00-3-00-+5-+5------------------------------|
A|--0-0-1-00-3-00-+5-+5------0-0-1-00-3-00-+5-+5------------------------------|
D|--0-0-1-00-3-00-+5-+5------0-0-1-00-3-00-+5-+5------------------------------|
PM		   .  .                     .  .

e|---------------------------------------------------------------------------|
B|---------------------------------------------------------------------------|
G|---------------------------------------------------------------------------|
D|--0-0-1-00-/0/3/5/10/5/4/3-------------------------------------------------|
A|--0-0-1-00-/0/3/5/10/5/4/3-------------------------------------------------|
D|--0-0-1-00-/0/3/5/10/5/4/3-------------------------------------------------|

x2

e|---------------------------------------------------------------------------|
B|---------------------------------------------------------------------------|
G|---------------------------------------------------------------------------|
D|--0--0000-00000------------------------------------------------------------|
A|--0--0000-00000------------------------------------------------------------|
D|--0--0000-00000------------------------------------------------------------|
PM     .... .....

x8 but continues behind this lead x8 again

e|---------------------------------------------------------------------------|
B|--7/8-88/5-55/7-77/11-11-11/10-10-10/13-13-13------------------------------|
G|--xxx-xxxx-xxxx-xxxxx-xx-xxxxx-xxxxxxxx-xx-xx------------------------------|
D|--4/5-55/2-22/4-44/8--8--8-/7--7--7-/10-10-10------------------------------|
A|---------------------------------------------------------------------------|
D|---------------------------------------------------------------------------|

x4
[ Tab from: http://www.guitartabs.cc/tabs/f/frank_klepacki/hell_march_tab.html ]
e|----------------------------------------------------------------------------|
B|----------------------------------------------------------------------------|
G|------------2/9-9-9-7-7-7------------------2/10-10-10-10-10-10--------------|
D|--0p2-2-------------------------0p3-3---------------------------------------|
A|--0p2-2-------------------------0p3-3---------------------------------------|
D|--0p2-2-------------------------0p3-3---------------------------------------|

e|---------------------------------------------------------------------------|
B|---------------------------------------------------------------------------|
G|------------2/9-9-9-7-7-7--------------------------------------------------|
D|--0p2-2-----------------------3-333-666666---------------------------------|
A|--0p2-2-----------------------3-333-666666---------------------------------|
D|--0p2-2-----------------------3-333-666666---------------------------------|

x2

Repeat from top then continue
e|---------------------------------------------------------------------------|
B|---------------------------------------------------------------------------|
G|---------------------------------------------------------------------------|
D|--0-0-1-00-3-00-+5-+5------0-0-1-00-3-00-+5-+5-----------------------------|
A|--0-0-1-00-3-00-+5-+5------0-0-1-00-3-00-+5-+5-----------------------------|
D|--0-0-1-00-3-00-+5-+5------0-0-1-00-3-00-+5-+5-----------------------------|
PM 		   .  .                     .  .

e|---------------------------------------------------------------------------|
B|---------------------------------------------------------------------------|
G|---------------------------------------------------------------------------|
D|--0-0-1-00-3-00-+5-+5------0-0-1-00-3-00-+5-+5-----------------------------|
A|--0-0-1-00-3-00-+5-+5------0-0-1-00-3-00-+5-+5-----------------------------|
D|--0-0-1-00-3-00-+5-+5------0-0-1-00-3-00-+5-+5-----------------------------|
PM		   .  .      		    .  .

e|---------------------------------------------------------------------------|
B|---------------------------------------------------------------------------|
G|---------------------------------------------------------------------------|
D|--0-0-1-00-/0/3/5/10/5/4/3-------------------------------------------------|
A|--0-0-1-00-/0/3/5/10/5/4/3-------------------------------------------------|
D|--0-0-1-00-/0/3/5/10/5/4/3-------------------------------------------------|

e|---------------------------------------------------------------------------|
B|---------------------------------------------------------------------------|
G|---------------------------------------------------------------------------|
D|--0-0-1-00-3-00-+5-+5------0-0-1-00-3-00-+5-+5-----------------------------|
A|--0-0-1-00-3-00-+5-+5------0-0-1-00-3-00-+5-+5-----------------------------|
D|--0-0-1-00-3-00-+5-+5------0-0-1-00-3-00-+5-+5-----------------------------|
PM		   .  .                     .  .

e|---------------------------------------------------------------------------|
B|---------------------------------------------------------------------------|
G|---------------------------------------------------------------------------|
D|--0-0-1-00-3-00-+5-+5------0-0-1-00-3-00-+5-+5-----------------------------|
A|--0-0-1-00-3-00-+5-+5------0-0-1-00-3-00-+5-+5-----------------------------|
D|--0-0-1-00-3-00-+5-+5------0-0-1-00-3-00-+5-+5-----------------------------|
PM		   .  .      		    .  .

e|---------------------------------------------------------------------------|
B|---------------------------------------------------------------------------|
G|---------------------------------------------------------------------------|
D|--0/3/5/10/5/4/3-----0/3/5/10/5/4/3-----0/3/5/10/5/4/3---------------------|
A|--0/3/5/10/5/4/3-----0/3/5/10/5/4/3-----0/3/5/10/5/4/3---------------------|
D|--0/3/5/10/5/4/3-----0/3/5/10/5/4/3-----0/3/5/10/5/4/3---------------------|

e|---------------------------------------------------------------------------|
B|---------------------------------------------------------------------------|
G|---------------------------------------------------------------------------|
D|--0-0-1-00-3-00------------------------------------------------------------|
A|--0-0-1-00-3-00------------------------------------------------------------|
D|--0-0-1-00-3-00------------------------------------------------------------|


| /  slide up
| \  slide down
| h  hammer-on
| p  pull-off
| ~  vibrato
| +  harmonic
| x  Mute note
===============================================================================
Comments