Francis Scott Key - Star Spangled Banner Chords & Tabs

 

Star Spangled Banner Chords & Tabs

Francis Scott Key Chords & Tabs

Version: 7 Type: Tab 0 ratings
1 star 2 stars 3 stars 4 stars 5 stars
comments

Star Spangled Banner Tab

   
Tabbed by: Malicai

This is pretty much the standard notation, just in a different key and arranged for a 7 string

Tuning:B-E-A-D-G-B-E
Key:   Bmaj

E|--------------------------------------------------------------------------|
B|--------------------------------------------------------------------------|
G|-------------------s----------------------s-------------------------------|
D|---------------9---/13-11-9-------------9-/13--11-9--8-----8-9-9----------|
A|-9-----------9-----------------8-9----9-----------------11-------9--------|
E|---11----11-----------------11-------------------------------------11---s-|
B|------12--------------------------------------------------------------12\-|


E|---------------------------------------------------------------------------|
B|---------------------------------------------------------------------------|
G|--------------------s----------------------s-------------------------------|
D|----------------9---/13-11-9-------------9-/13--11-9--8-----8-9-9----------|
A|--------------9-----------------8-9----9-----------------11-------9----s---|
E|----s-----11-----------------11-------------------------------------11-\-7-|
B|0-4-/-12-------------------------------------------------------------------|

[ Tab from: http://www.guitartabs.cc/tabs/f/francis_scott_key/star_spangled_banner_tab_ver_7.html ]
E|--------------------------------------------------------------------------|
B|--------------------------------------------------------------------------|
G|-8-8-8--9--11-11---9-8----8--9-9---9--8-----------------------------------|
D|-----------------------11----------------11-9--8------8-9-----------------|
A|---------------------------------------------------11------------8--9---9-|
E|--------------------------------------------------------------11----------|
B|--------------------------------------------------------------------------|


E|--------------------------------------------------------------------------|
B|--------------------------------------------------------------------------|
G|----------9----------------------h----9--8--------------------------------|
D|-9--9--9--9--8-----------9------9^11-------11--10--10---9--(9)------------|
A|----------------11-11-11-11-11--------------------------------------9--9--|
E|--------------------------------------------------------------------------|
B|--------------------------------------------------------------------------|


E|--------------------------------------------------------------------------|
B|--------------------------------------------------------------------------|
G|---------8--9--11-----------8----9-----------s----------------------------|
D|-9---11--------------9--11-----------11--(11)\----------------------------|
A|-9----------------------------------------------2------(2)----------------|
E|------------------------------------------------2------(2)----------------|
B|------------------------------------------------0------(0)----------------|
Comments