Francis Scott Key - Star Spangled Banner Chords & Tabs

 

Star Spangled Banner Chords & Tabs

Francis Scott Key Chords & Tabs

Version: 6 Type: Tab 0 ratings
1 star 2 stars 3 stars 4 stars 5 stars
comments

Star Spangled Banner Tab

   
This is my first tab, but its 100% correct.

Tuning: Standard

C
1---------0--------------0------------------------| Repeat
2------1---3-1------------3-1-0---0-1-1-----------|
3-0---0-----------0---0-0--------2-----0----------|
4--2-2---------2-4----------------------2---------|
5---3------------------------------------3--------|
6-------------------------------------------------|

[ Tab from: http://www.guitartabs.cc/tabs/f/francis_scott_key/star_spangled_banner_tab_ver_6.html ]
-0-0-0-1-3-3--1-0-0-1-1--1-0----------------------|
-----------------3----------3-1-0--0-1------------|
----------------------------------2-------0-------|
---------------------------------------2-4--------|
--------------------------------------------------|
--------------------------------------------------|

-------------------1-0----------------------------|
--1-1-1-0---------3---3-1-1-0---------------------|
-0---------2-2-2----------------------------------|
--------------------------------------------------|
--------------------------------------------------|
--------------------------------------------------|

-------0-1-3-----0-1------------------------------|
----1-3-------1-3---3--1--------------------------|
-0-0----------------------------------------------|
--------------------------------------------------|
--------------------------------------------------|
--------------------------------------------------|
Comments