Francis Scott Key - Star Spangled Banner Chords & Tabs

 

Star Spangled Banner Chords & Tabs

Francis Scott Key Chords & Tabs

Version: 3 Type: Tab 0 ratings
1 star 2 stars 3 stars 4 stars 5 stars
comments

Star Spangled Banner Tab

|------------------------------------------------------------------|
|------------------------------------------------------------------|
|------------------------------------------------------------------|
|--------------------9-7-5----------------9-7-5-4-----5-5----------|
|---------------10--------------------------------7-9--------------|
|--10-7-3--7-10-------------7-9-10--10-10-----------------10-7-3---|

|------------------------------------------------------------|
|------------------------------------------------------------|
|------------------------------------------------------------|
|----------------7-9-7-5---------------9-7-5-4-2-4-5-5-------|
|-------------10---------------------------------------5-----|
|-10-7-3-7-10------------7-9-10-10-10--------------------7-3-|
[ Tab from: http://www.guitartabs.cc/tabs/f/francis_scott_key/star_spangled_banner_tab_ver_3.html ]
|------------------------------------------------------------------|
|------------------------------------------------------------------|
|------------------------------------------------------------------|
|-9-9-9-10-12-12--10-9-7-9-10-10--10-9-7-5-4-----5-----------------|
|--------------------------------------------7-9-------------------|
|--------------------------------------------------7-9-10----------|

|------------------------------------------------------------------|
|------------------------------------------------------------------|
|------------------------------------------------------------------|
|---------------------7-9^9-7-5-4~~~-----------7-9-10-12-----------|
|----10-10-10-9-7-7-7-----------------------10---------------------|
|-10----------------------------------10-10------------------------|

|------------------------------------------------------------------|
|------------------------------------------------------------------|
|------------------------------------------------------------------|
|----7-9-10-7-5----------------------------------------------------|
|-10---------------------------------------------------------------|
|------------------------------------------------------------------|

Tabbed by Wahnie

Questions, comments and corrections send to psychoticcoyote@itookmyprozac.com
Comments