Francis M - Superproxy2k6 Chords & Tabs

 

Superproxy2k6 Chords & Tabs

Francis M Chords & Tabs

Version: 2 Type: Tab

Superproxy2k6 Tab

   
Intro:
e|---------------------------------------|
B|---------------------6-----------------|
G|----6-6---6-6---6-8------8-6-----------| x4
D|--8-----8-----8------------------------|
A|---------------------------------------|
E|---------------------------------------|

e|---6--6------------------6--6-----------------|
B|---6--6---------6--------6--6---------6-------|
G|---7--7-----6-8---8-6----7--7-----6-8---8-6---|
D|---8--8---8--------------8--8---8-------------|
A|---8--8------------------8--8-----------------|
E|---6--6------------------6--6-----------------|

e|---6--6--6-----------------6--6-----------------|
B|---6--6--6--------6--------6--6---------6-------|
G|---7--7--7----6-8---8-6----7--7-----6-8---8-6---|
D|---8--8--8--8--------------8--8---8-------------|
A|---8--8--8-----------------8--8-----------------|
E|---6--6--6-----------------6--6-----------------|
(Synchronization with Bass)
e|---------------------------------------|
B|--------------------6------------------|
G|----6-6---6-6---6-8------8-6-----------| x4
D|--8-----8-----8------------------------|
A|---------------------------------------|
E|---------------------------------------|

Verse:
 Sawa ka na ba
e|---6--6----------|
B|---6--6----------|
G|---7--7----------|
D|---8--8----------|x12
A|---8--8----------|
E|---6--6----------|      
 
Refrain:

 F#                G#
 Ito ang kailangan mo
 F#                  B
 I-dial lang ang telepono

Chorus:

 C#                   Eb
 Hindi na dapat maghirap
             C#
 Sa iisang iglap
                   Eb
 Ang buhay mo ay sasarap huwag nang mag-atubili
  F
 Kumuha na ng superproxy
[ Tab from: http://www.guitartabs.cc/tabs/f/francis_m/superproxy2k6_tab_ver_2.html ]
Interlude: 
---6--6----------------6--6--6-----------------|
---6--6---------6------6--6--6---------6-------|
---7--7-----6-8---8-6--7--7--7-----6-8---8-6---|
---8--8---8------------8--8--8---8-------------|
---8--8----------------8--8--8-----------------|
---6--6----------------6--6--6-----------------|

Verse: (same as Verse)
 
Ako ay kaibigan
Na lagi mong maasahan
Umulan man at umaraw ay nariyan 'pag kailangan
Ito ay special offer
Sa mga taong katulad mo
Gamitin ang iyong bulsa para guminhawa

Refrain:

 F#                G#
 Ako ang kailangan mo
 F#                  Fb
 Isaksak lang ang modem n'yo

Chorus 2:

 C#                   Eb
 Hindi na dapat maghirap
             C#
 Sa iisang iglap
                   Eb
 Ang buhay mo ay sasarap huwag nang mag-atubili
  F
 Gumamit ka ng superproxy

Adlib:Bb-Eb(8x)

Refrain:

 F#                 G#
 Ako ang kailangan mo
 F#                   B
 I-dial lang ang telepono

Chorus:

 C#                   Eb
 Hindi na dapat maghirap
             C#
 Sa iisang iglap
                   Eb
 Ang buhay mo ay sasarap huwag nang mag-atubili
  F
 Gumamit ka ng superproxy
(Synchronization with Bass)
e|---------------------------------------|
B|--------------------6------------------|
G|----6-6---6-6---6-8------8-6-----------| x4
D|--8-----8-----8------------------------|
A|---------------------------------------|
E|---------------------------------------|

faster..

e|---------------------------------------|
B|--------------------6------------------|
G|----6-6---6-6---6-8------8-6-----------| x4
D|--8-----8-----8------------------------|
A|---------------------------------------|
E|---------------------------------------|

Adlib:


<<'Pag me mali, email me na lang rgcadavos_cute@yahoo.com>>
<>