Francis M - Superproxy2k6 Chords & Tabs

 

Superproxy2k6 Chords & Tabs

Francis M Chords & Tabs

Version: 1 Type: Tab

Superproxy2k6 Tab

-------------------------------------------------------------------------------
  Superproxy2k6 by Francis m. (original by eraserheads)
-------------------------------------------------------------------------------
Tabbed by: John P.
Email: johnpinto04@yahoo.com

Tuning: standard (EADGBe)

Intro/verse (2x)

e|------------------------------|
B|------------------------------|
G|----------------6--8--8b10----|
D|--8---8------8----------------|
A|--8---8-----------------------|
E|--6---6-----------------------|

Pre chorus
[ Tab from: http://www.guitartabs.cc/tabs/f/francis_m/superproxy2k6_tab.html ]
e|---------------------------|
B|---------------------------|
G|---------------------------|
D|--4------6-----4----9------|
A|--4------6-----4----9------|
E|--2------4-----2----7------|

Chorus
e|------------------------------|
B|------------------------------|
G|---6----8----6----8-----------|
D|---6----8----6----8----3------|
A|---4----6----4----6----3------|
E|-----------------------1------|

Adlib
(just play something in the key of Bb) :D

Song Structure:
Intro
Verse
Pre Chorus
Chorus
Verse
Pre Chorus
Chorus
Adlib
Pre Chorus
Chorus

~end~

comments? email @ johnpinto04@yahoo.com
hi to nitrate. =)