Francis M - Baw-waw-waw Chords & Tabs

 

Baw-waw-waw Chords & Tabs

Francis M Chords & Tabs

Version: 1 Type: Tab 0 ratings
1 star 2 stars 3 stars 4 stars 5 stars
comments

Baw-waw-waw Tab

   
http://www.elyrics.net/songs/f/Francis%20Magalona%20Lyrics/

Philippines

Song Title: Baw-waw-waw!
By: Francis M.
Album: Freeman
Tuning: Eb
Transcribed By: Choo Nerez
(If you have any comments or suggestions to the transcription,
pls feel free to mail me at this address, joshnerez@yahoo.com)

*I highly suggest on mastering the articial(pinch) harmonic technique para kapa talaga
masyado tong song na'to...happy pickin'...

Notation Legend:

*	= 	Pinch Harmonics
p	=	Pull-off
h	=	Hammer-on
b	=	Bend
r	=	Release
[]	=	Natural Harmonics
P.M.	=	Palm Mute
t	=	Tap
x	=	Dead String
tr	=	Tremelo Picking
tr~	=	Trill
~	=	Vibrato
s	=	Slide

Chorus:
Ibat-iba ang trip ng bawat tao...

               		       *         *
eb|------------------------------------------|
Bb|------------------------------------------|
Gb|----------------------------9b11r9p7--7~--|
Db|------------------------------------------|
Ab|---7-5-7-5--------------------------------|
Eb|-----------7-5-7-5---3--0-----------------|

					 *
eb|-------------------------------------------|
Bb|-------------------------------------------|
Gb|----------------------------9b11r9p7--7~---|
Db|-------------------------------------------|
Ab|---7-5-7-5-----------5--7------------------|
Eb|-----------7-5-7-5-------------------------|

  			       *         *
eb|------------------------------------------|
Bb|------------------------------------------|
Gb|----------------------------9b11r9p7--7~--|
Db|------------------------------------------|
Ab|---7-5-7-5--------------------------------|
Eb|-----------7-5-7-5---3--0-----------------|

Sa inoman ang pulutan ay bawawaw...

   w/ wah
eb|-----------------|----------------|----------------|
Bb|---10-----8~-----|-10b12~--8~-----|--8~--8~--------|
Gb|----9b11------9~-|-------------9~-|-----------9~---|
Db|-----------------|----------------|----------------|
Ab|-----------------|----------------|----------------|
Eb|-----------------|----------------|----------------|

Verse:

eb|------------------------------------|
Bb|------------------------------------|
Gb|------------------------------[5]---|
Db|------------------------------[5]---|
Ab|---4-4---4-4-4---4-4-4----4-4--5----|
Eb|---2-2---2-2-2---2-2-2----2-2--3----|

Sila ang kumatay kay bantay...
[ Tab from: http://www.guitartabs.cc/tabs/f/francis_m/baw_waw_waw_tab.html ]
Chorus:
Ibat-iba ang trip ng bawat tao...

eb|-------------|
Bb|-------------|
Gb|-------------|
Db|-------------|
Ab|---5--6--7~--|
Eb|-------------|

               		       *         *
eb|------------------------------------------|
Bb|------------------------------------------|
Gb|----------------------------9b11r9p7--7~--|
Db|------------------------------------------|
Ab|---7-5-7-5--------------------------------|
Eb|-----------7-5-7-5---3--0-----------------|

					 *
eb|-------------------------------------------|
Bb|-------------------------------------------|
Gb|----------------------------9b11r9p7--7~---|
Db|-------------------------------------------|
Ab|---7-5-7-5-----------5--7------------------|
Eb|-----------7-5-7-5-------------------------|

  			       *         *
eb|------------------------------------------|
Bb|------------------------------------------|
Gb|----------------------------9b11r9p7--7~--|
Db|------------------------------------------|
Ab|---7-5-7-5--------------------------------|
Eb|-----------7-5-7-5---3--0-----------------|

Sa inoman ang pulutan ay bawawaw...

   w/ wah
eb|-----------------|----------------|----------------|
Bb|---10-----8~-----|-10b12~--8~-----|--8~--8~--------|
Gb|----9b11------9~-|-------------9~-|-----------9~---|
Db|-----------------|----------------|----------------|
Ab|-----------------|----------------|----------------|
Eb|-----------------|----------------|----------------|

Bridge:

		    (4x)
eb|--------------------||-----|
Bb|--------------------||-----|
Gb|--------------------||-----|
Db|--9--7--------------||-----|
Ab|--7--5--9--7--5--7--||--2--|
Eb|--------7--5--3--5--||--0--|

Iba't iba ang trip ng bawat tao,
One-day-old, at kalderetang aso,
Tao'y sibilisado raw, ngunit mga halimaw,
Sa inuman ang pulutan ay baw-waw-waw
Mga asong nakatali, isa-isang nawawala sa kalye,
Tiningnan ko sa may bakuran namin, nawawala ang aso kong itim,
Ang pangalan niya'y Bantay, at kahit siya'y galisin,
Siya'y kaibigan at mabuting alipin, may nagyaya sa amin ng inuman
At ako'y hiningan ng pambili ng pulutan, agad ko namang ibinigay
Sabay tumoma habang naghihintay,
"Kampai!!", luto na raw ang aming
Hinihintay, isang malaking aso na itim ang kulay,ako'y napalunok
At natuyuan ng laway,...(Yukkk!)
Sila ang kumatay kay Bantay!!!!
Comments