Frampton Peter - Show Me The Way Solo Chords & Tabs

 

Show Me The Way Solo Chords & Tabs

Frampton Peter Chords & Tabs

Version: 1 Type: Tab 0 ratings
1 star 2 stars 3 stars 4 stars 5 stars
comments

Show Me The Way Solo Tab

Solo Show me the way Peter Frampton

Intro
-------------------------------------------------------------------
--------------------------10---------------------------------------
----------6-7----7-9^--7------7-----------------6-7----7-9^--7-7---
-7—---7-9-----9------------------9-----7----7-9-----9--------------
-------------------------------------------------------------------
-------------------------------------------------------------------

Bridge
-------------------------------------------------------------------
--------------7-10-8-10-7------------------------7-----------------
-------6-7-9--------------9-7-9-9^-7-9^-7-9^-7-9—--9-7-7-----------
--7-9--------------------------------------------------------------
-------------------------------------------------------------------
-------------------------------------------------------------------
[ Tab from: http://www.guitartabs.cc/tabs/f/frampton_peter/show_me_the_way_solo_tab.html ]
He he here is the solo * means a little break
----------------------------10-7-----------------------------------
-------------7-10-8-10*-8-7------10-7-10-7-------------------------
------6-7*-9-------------------------------9-7-9-9^-7-9----7-9*----
--7-9----------------------------------------------------9---------
-------------------------------------------------------------------
-------------------------------------------------------------------


------------------------------------------------------7-7-7--------
------7-10-8-7*--------------------------10-----------------10-10*-
--7-9------------9^-7-9-----7-9*---9^-7-----7-7-9^-7*--------------
-------------------------9-----------------------------------------
-------------------------------------------------------------------
-------------------------------------------------------------------

------10*--10-9-7-9*-7-9-7*-------------10-7-----------------------
--8-7-----------------------10—7-10-8-7------10-7------------------
--------------------------------------------------9-7-9-9^-7-------
-------------------------------------------------------------------
-------------------------------------------------------------------


-------------------------------------------------------------------
---------------7-10-8-7*-------------------------------------------
-----7-9*--7-9-------------9^-7-9-7-7-9—--9^-7-9^-7-9^-7-9^-7------
--9----------------------------------------------------------------
-------------------------------------------------------------------
-------------------------------------------------------------------


I hope it´s correct
Comments