Frampton Peter - Do You Feel Like We Do Chords & Tabs

 

Do You Feel Like We Do Chords & Tabs

Frampton Peter Chords & Tabs

Version: 2 Type: Tab 1 rating
1 star 2 stars 3 stars 4 stars 5 stars
comments

Do You Feel Like We Do Tab

This is just the intro, but I guarantee it is right, i spent $20 on 
the book, so it better be right. it sounds good. 

e------------------------------------------------  
b------------------------------------------------ 
g-5---7-5----------------------------------------
d---7-----7-5--3---5-3------3---5-3--------------
a----------------5-----5-3----5-----5-3--5-3---3-
e--------------------------------------------5---

e------------------------------------------------
b-5---6-5-------------------------------------------
g---5-----5h7p5-4--2---4-2------2---4-2-----------------
d--------------------3-----3-2----3-----3-2--(5~~~~~~~~)
a------------------------------------------------
e------------------------------------------------

e-------------------------------------------------------------
b-13----15-13-------------------------------------------------
g----14-------14-12--10----12-10----------10----12-10---------
d-----------------------12-------12-10-------12-------12-10---
a-------------------------------------------------------------
e-------------------------------------------------------------
[ Tab from: http://www.guitartabs.cc/tabs/f/frampton_peter/do_you_feel_like_we_do_tab_ver_2.html ]
--------------------------------------------
--------13-15----13-15-10h12p10----10s9------
--13h14-------14----------------12------12-10
--------------------------------------------
--------------------------------------------
--------------------------------------------

e-------------------------------------------------------------
b-13----15-13-------------------------------------------------
g----14-------14-12--10----12-10----------10----12-10---------
d-----------------------12-------12-10-------12-------12-10---
a-------------------------------------------------------------
e-------------------------------------------------------------

 -----------------------
 -----------------------
 --(crecendo)-----------
 -12--12--12--12--------
 -----------------------
 -----------------------

e----------------------------------------------------
b----------------------------------------------------
g-8----10-8-------------------------------------9----
d---10------10-8--6---8-6------6---8-6--------9------
a-------------------8-----8-6----8-----8-6--9--------
e----------------------------------------------------

e--------------------------------------------------------
b-16----18-16--------------------------------------------
g----17-------17-15--13----15-13--------13----15-13------
d-----------------------15-------15-13-----15-------15-13
a--------------------------------------------------------
e--------------------------------------------------------

d--15s17~~-17s19~~~-------
Comments