Frampton Peter - Do You Feel Like We Do Live Chords & Tabs

 

Do You Feel Like We Do Live Chords & Tabs

Frampton Peter Chords & Tabs

Version: 1 Type: Tab 8 ratings
1 star 2 stars 3 stars 4 stars 5 stars
comments

Do You Feel Like We Do Live Tab

   
Do You Feel Like We Do (Live)
By Peter Frampton
Transcribed by gijoe119@hotmail.com

  I have looked forever online for a decent transcription to this song. I dont 
believe one exists. The ones that are out there are portions (mostly just the 
intro) and most are just wrong. So I have done what I avoided for a long time, 
I have painstakingly transcribed this song myself. It is long because it is 
complete. You will still have to listen to the song, of course, to get the 
timing, and feel and tones, but I think you will find that this is pretty 
accurate. If you have any comments or questions about this transcription, 
feel free to email me at gijoe119@hotmail.com. Enjoy.

Do You Feel Like We Do (Live)
By Peter Frampton
Transcribed by gijoe119@hotmail.com

Intro (Light Distortion)
---------------------------------------------------
---------------------------------------------------
-5---7-5-------------------------------------------
---7-----7-5--3---65-3-----3---65-3--------------
----------------5------5-3----5------5-3--5--3---3-
-----------------------------------------------5---
                                                           [D]
------------------------------------------------------------2--2---2--2-
-5----6-5---------------------------------------------------3--3---3--3-
----5-------5h7p5--4--2----54--2------2----54---2---------2--2---2--2-
------------------------3---------3--2---3-----------3--2-0-0--0--0--0--
------------------------------------------------------------------------
------------------------------------------------------------------------

------10------------------------------------------------10------------------------
-13-10--13-10------------------------------------------10-13--10------------------
-------------12-10--1312-10-----10--1312-10--10-12(13)----12--10h12p10-10-9-----
------------------12--------12-10--12--------12-------------------------12---12-10
----------------------------------------------------------------------------------
----------------------------------------------------------------------------------
						        	      [D]
------10----------------------------------------------------------
-13-10--12-10-----------------------------------------------------
-------------12-10--1312-10-----10---1312-10---------7--7--7--7-
------------------12--------12-10--12----------12-10---7--7--7--7-
-------------------------------------------------------5--5--5--5-
------------------------------------------------------------------

(with increased Leslie(rotating speaker effect)(can somewhat simulate with chorus effect)
------------------------------------------------------
----------------------------------------------------8-
-8----10-8----------------------------------------8---
---10-----10-8-6----98-6-----6---98-6---6--8/10-----
-----------------8--------8-6---8-------8-------------
------------------------------------------------------

------13-------------------------------------------------------------
-16-13--16-13--------------------------------------------------------
-------------15--13---1615-13------13---1615-13---13--15/17--17/19-
-------------------15---------15-13---15---------15------------------
---------------------------------------------------------------------
---------------------------------------------------------------------

Verse 1 (Heavier Distortion)
  [A]        [E]          [A]              [A]        [E]         [A]    [A7]
--------------------------------------------------------------------------0--3-
---2-2--2-2----------------2-2--2-2---2-----2-2--2-2---------------2------2--2-
-0-2-2--2-2---1-1--1-1---0-2-2--2-2---2---0-2-2--2-2---1-1--1-1--0-2----0-0--0-
-0-2-2--2-2---2-2--2-2---0-2-2--2-2---2---0-2-2--2-2---2-2--2-2--0-2----0-2--2-
---0-0--0-0---2-2--2-2-----0-0--0-0---0-----0-0--0-0---2-2--2-2----0------0--0-
--------------0-0--0-0---------------------------------0-0--0-0----------------

Chorus 1
[D]       [F9]                 [C] [G] [D] [A]     [D]      [F9]     [C] [G] [D]        
-2---2----3-3---------------------------2-----------2---2----3---3------------2
-3---3----1-1-------------------5---3---3-----------3---3----1---1----5---3---3
-2---2----2-2-------------------5---4---2---2-------2---2----2---2----5---4---2
-0---0----1---------------------5---5---0---2-------0---0----1---1----5---5---0
-0---0----3----3-------3--------3---5-------0-3p0-3-0---0----3---3----3---5----
----------1----0h1-1-1-0h1-1-1------3------------------------1---1--------3----

Verse 2
  [A]        [E]          [A]              [A]        [E]         [A]    [A7]
--------------------------------------------------------------------------0--0-
---2-2--2-2----------------2----------------2-2--2-2---------------2------2--2-
-0-2-2--2-2---1-1--1-1---0-2--------------0-2-2--2-2---1-1--1-1--0-2----0-0--0-
-0-2-2--2-2---2-2--2-2---0-2--------------0-2-2--2-2---2-2--2-2--0-2----0-2--2-
---0-0--0-0---2-2--2-2-----0----------------0-0--0-0---2-2--2-2----0------0--0-
--------------0-0--0-0---------------------------------0-0--0-0----------------

Chorus 2
[D]       [F9]                 [C] [G] [D] [A]     [D]      [F9]     [C] [G]         
-2---2----3-3---------------------------2-----------2---2----3---3----------
-3---3----1-1-------------------5---3---3-----------3---3----1---1----5---3-
-2---2----2-2-------------------5---4---2---2-------2---2----2---2----5---4-
-0---0----1---------------------5---5---0---2-------0---0----1---1----5---5-
-0---0----3----3-------3--------3---5-------0-3p0-3-0---0----3---3----3---5-
----------1----0h1-1-1-0h1-1-1------3------------------------1---1--------3-

Bridge (same as intro)
------------------------------------------------------------------------
------------------------------------------------------------------------
-5---7-5---------------------------------------5-7-5-------------------- 
---7-----7-5--3---65-3------3---65-3---3-5/7-------5-7-3h5p3---3-2p0--
----------------5-------5-3----5-------5-----------------------5------3-
------------------------------------------------------------------------
 							                 [D]    [G]  
------------------------------------------------------------2--2-----
-5----6-5---------------------------------------------------3--3---3-
----5-------5h7p5--4--2----5-4--2------2----5-4---2---------2--2---4-
------------------------3---------3--2---3-----------3--2-0-0--0---5-
-------------------------------------------------------------------5-
-------------------------------------------------------------------3~

Guitar Lead 1 [over A C D](distorted with Leslie, slight echo and reverb)
------10-------------------------------------------------------------------------
-10-13--13(15)~-13-10------------------------------------------------------------
---------------------12(13)-12-10-12-12(13)12p10--------10-12-12(13)-(13)12-10-12
------------------------------------------------12~-10-12------------------------
---------------------------------------------------------------------------------
---------------------------------------------------------------------------------

---------------------------------------------------------------------------------
---------------------------------------------------------------------------------
-10p9-------------------------------------------9-10~--10-12-10-12(13)12p10-12---
-----12-12p10--------------------------10--10-12------------------------------12-
-------------12-10-8----8-10-8-10-10/12--12--------------------------------------
--------------------10~----------------------------------------------------------

----------------10----10-10--15-13p12-12------------------------------------------
--------------10--10-13-----x-------15-13--------------------------------------10-
10-12-10-12(13)------------x------------14(15)-14p12-14-12-10-12-10-10-12-10-12---
----------------------------------------------------------------------------------
----------------------------------------------------------------------------------
----------------------------------------------------------------------------------

-------------------------------------------------------------10-12h13p12p10-12~-12
------------------------------------------------9-10--10-12-13--------------------
10p9--9--------10-12-10-9-10-9-----------9-10-12----12----------------------------
----12-10-----10--------------12-10-12-12-----------------------------------------
---------12-12--------------------------------------------------------------------
----------------------------------------------------------------------------------

-13p12p10-12-13p12p10-12-13p12p10-12-13p12p10-12-13-13/15-12-15-12-12x------------
-------------------------------------------------------------------12x------------
-------------------------------------------------------------------12-10-9~-------
--------------------------------------------------------------------------12-10-12
----------------------------------------------------------------------------------
----------------------------------------------------------------------------------

----------------------------------------10-----10-----10-----10----10-10----10-10-
---------------------------------------10-----10-----10-----10-----10-10----10-10-
-10-12-10-12(13)12p10-12--10-12-10-12(14)-12(14)-12(14)-12(14)-12(14)---12(14)----
------------------------12--------------------------------------------------------
----------------------------------------------------------------------------------
----------------------------------------------------------------------------------

----10-10----10-10--10-------10-------10-------10-------10~--------10------10----
----10-10----10-10--10-------10-------10-------10-------10~--------10------10----
12(14)---12(14)-------12(14)---12(14)---12(14)---12(14)---12(14)~--12(14)--12(14)
---------------------------------------------------------------------------------
---------------------------------------------------------------------------------
---------------------------------------------------------------------------------

Chorus 3
[D]       [F9]                 [C] [G] [D] [A]     [D]      [F9]     [C] [G]         
-2---2----3-3---------------------------2-----------2---2----3---3----------
-3---3----1-1-------------------5---3---3-----------3---3----1---1----5---3-
-2---2----2-2-------------------5---4---2---2-------2---2----2---2----5---4-
-0---0----1---------------------5---5---0---2-------0---0----1---1----5---5-
-0---0----3----3-------3--------3---5-------0-3p0-3-0---0----3---3----3---5-
----------1----0h1-1-1-0h1-1-1------3------------------------1---1--------3-

Verse 3 (Same as 2)

Chorus 4
[D]       [F9]                 [C] [G] [D] [A]     [D]      [F9]     [C] [G]         
-2---2----3-3---------------------------2-----------2---2----3---3----------
-3---3----1-1-------------------5---3---3-----------3---3----1---1----5---3-
-2---2----2-2-------------------5---4---2---2-------2---2----2---2----5---4-
-0---0----1---------------------5---5---0---2-------0---0----1---1----5---5-
-0---0----3----3-------3--------3---5-------0-3p0-3-0---0----3---3----3---5-
----------1----0h1-1-1-0h1-1-1------3------------------------1---1--------3-

Keyboard solo and vocal bridge over [D] [F] [C](Walk A C up to [D])


Fills 						    (faintly)	       (faintly)
---------------------------------------------------------------------------------
---------------------------------------------------------------------------------
---------------------------------------------------------------------------------
-7p5-7p5----------------------...Oh, that's true-5-5-7~-------------5h7-5p3------
---------8-5~keyboard solo...---------------------------...get back--------3-3-5~
----------------------------------------------------------------------------5----

Guitar Lead 2
(faintly at first)
----------------------------------------------------------------------------
-------------------------------------------------------------------------13~
------10------------10-12-12(13)12p10-12---109-----------10-12(13)12-10----
-10-12---12---10-12---------------------12------12-10---12------------------
----------------------------------------------------------------------------
----------------------------------------------------------------------------

(increased volume)(distorted with Leslie, slight echo and reverb)
--------------------------------------------------------------------------
-13-10--10----------------------------------------------------------------
------12--10-------------------------------------10-12-12(13)12p10-12--10-
------------12-10-12~--10-12----------------------------------------12---
-----------------------------10(12)10-8-10-8------------------------------
--------------------------------------------10~--------------------------

--------10-----13(15)-13-12-12h13p12p10-12~--------------------------------------
------10--10-13----------------------------13------------------------------------
-12(13)--------------------------------------12(13)12p10-12(14)~-10-12-10--------
-------------------------------------------------------------------------12-10-12
---------------------------------------------------------------------------------
---------------------------------------------------------------------------------

-----------------------------------------10----10--13p12p10-12~----12-15-15-13-12~
---------------------------------------10--10-13-----------------13---------------
-10-12--12(13)12p10-12--10-12-10--12(14)----------------------14------------------
----------------------12----------------------------------------------------------
----------------------------------------------------------------------------------
----------------------------------------------------------------------------------

-------------------------------15--15---------------------------------------------
-15p13-15-15(17)-16(19)-15~--13--13--1312----------------------------------------
------------------------------------------14~-12(14)12p10-12--109----------------
------------------------------------------------------------12----12-10-----------
-----------------------------------------------------------------------12-11-10-8-
----------------------------------------------------------------------------------

---------------------------------------------------------------------10-
---------------------------------------------------------------------10-
-------------10-12---10-12-12(13)12p10-12-10-12-10-12(14)~---(14)12--10-
------10--10-----------------------------12------------------------------
-10/12--12---------------------------------------------------------------
-------------------------------------------------------------------------

(faintly)
----------------------------------------------------------------10--10-13/15--13~
-----------------------------------------------------------10-13--13-------------
-12(14)-12-10--12-10-9-10p9-7h9-7~---9-10-9------9-10-10/12----------------------
-----------------------------------12------12~-12--------------------------------
---------------------------------------------------------------------------------
---------------------------------------------------------------------------------
[ Tab from: http://www.guitartabs.cc/tabs/f/frampton_peter/do_you_feel_like_we_do_live_tab.html ]
(Talk Box On)(distorted Wah on and slight echo and reverb)
----------------------------------------------------------------------------------
----------------------------------------------------------------------------------
-----------------------------------------------------------------5-7--------------
--------------(3)------------3---5(7)-(7)5-3--5-3---------4-5-5/7~---5-3-5-3------
----------3/5~---5-------3/5--5~-----------------5-5~--3-5------------------5-3-5~
-1-3-1-3-1--------1-3-1-3-1-------------------------------------------------------

----------------------------------------------------------------------------------
----------------------------------------------------------------------------------
------------------------------------------------------5h7-5-----------------------
------------------3-5p3-3-5p3---------4-5-5/7-4-5-5/7~---7-5h7-3h5-3---3-5-5(7)5p3
3--------------3/5-----5-----5-3---3-5-------5--------------------5-3h5-----------
-3(4)3-1-3-3-1------------------3h5-----------------------------------------------

----------------------------------------------------------------------------------
----------------------------------------------------------------------------------
----------------------------------------------------------------------------------
5-3-5-3-3p0-0-3p0-0-3p0-0-3h4~-------3----------3-----3--2---------------3(4)-----
-5-----5----------------------3--5-------3--5---------------5~-3--5---3--------5~-
----------------------------------------------------------------------------------
           (Talk Box Mimic): Do you feel do you feel like I do I want to thank you

----------------------------------------------------------------------5-7-7(8)-
-----------------------------------------------------------------5-7-8---------
------------------------------------------------------------5-5-7--------------
------3-5-5(7)-5-3-5-3~------3-5p3---------2-3-4-5~--3-5-5/7-------------------
--3-5--------------------3h5~-----------3-5------------------------------------
-----------------------------------1~-----------------------------------------

-7-5h7p5--7p5-5------------------------------------------------------------------
--------8----8-6p5---------------------------------------------------------------
------------------7-5~-5h7-5-----------------------------------------------------
--------------------------7--5h7-3h5-3--------------------3-2--3-2-0-3-2-0-2-3-4-
------------------------------------5-3h5-3-----------3--------------------------
-----------------------------------------5-3h5-1h3-3/5---------------------------

---------------------------------------------------------------------------
----------------10---------------------------------------------------------
----------------10------------------------------14-14~14-13-12-10-12-12-12-
-----10-12-12-12------12-12-12-14(15)14-12-14-12---------------------------
12-12------------12-14-----------------------------------------------------
---------------------------------------------------------------------------

--------------------------------------------------------------------------------
-----------------10-------------------------------10-12-10-13(15)~13(15)~13(15)~
-12(14)12p10-12--10-12-10-12-10-12-12(14)12p10-12-10-12-10----------------------
---------------12---12-10-12---------------------12-----------------------------
--------------------------------------------------------------------------------
--------------------------------------------------------------------------------

----------------------------------------------------------------------------
-13(15)-13-10-13-10-10-10----10-12-12(13)(13)12-10-12-10~-------------------
-------------------12--10----10-12-12(13)(13)12-10-12-10~--9-10-9h10p9--9---
-------------------------12-12----------------------------------------12-10-
----------------------------------------------------------------------------
----------------------------------------------------------------------------

--------------------------------------------------------------------------------
--------------------------------------------------------------------------------
-------------------------------------------------------------------------9h10h12
---------------------------------------------------------------10--10-12~-------
12-11-10-8-10-8~-10-8-----10-8--10-8--10-8--10-8-----8-10-10/12--12-------------
---------------------10-10----10----10----10----10-10---------------------------

-----------------------------------------------------------------------------
10-13p10(x25)-10-12-12h13p12-10~---------------------------10----------------
--------------------------------12(14)-(14)12-10-12-10-----10-12-12(14)12p10-
------------------------------------------------------10-12------------------
-----------------------------------------------------------------------------
-----------------------------------------------------------------------------

							            (faintly with wah)
-----------------------------------------------------------------------
-----------------------------------------------------------------------
-12-10-9---------------------------------------------------------------
---12---12-10----------------------------------------------------------
--------------12-11-10-8-------------------------------(3)-(5)-(5)-(5)-
------------------------10-10~--5-4-3-1-1~-2-3-4-5---------------------

---------------------------------------------------------------------------
---------------------------------------------------------------------------
---------------------------------------------------------------------------
------------------------------3-----3---------3-----3----------------------
-------------------------5~-----------5---------------5------3--------3h5--
-1---3--3(5)3--1---1--1------------------------------------------5---------
 Do you fe-el like I  do-oo? That's alright, That's alright, if you'd li-ke

---------------------------------------------------------------------------------
---------------------------------------------------------------------------------
----------------------------------------------5----------------------------------
------------------3-----------3---5-3----57----5(6)5--3-------------------------
-3-----3---3h5---------5------------------------------------------5----------5---
---------------------------------------------------------------1---------1-------
hava good ti-me, good time, were gon-na ha-ve a go-od time, good time, good time, 

---------------------------------------------------------------------------
-----------------------------10------------10-12-10(12)-12(13)-12(13)-10~-
-----------------------------10-----9-11-12-------------------------------
--------------------------------10-12--------------------------------------
------5--------------------5-----------------------------------------------
-1---------1-----3-----1---------------------------------------------------
good time, good time, good time

------------------------------------------------------------
-------------------------------------------------12p13-13p15
12h14p12-11h12~-10h12p10-9---------------11-12-14-----------
--------------------------12p10-12~-12-14-------------------
------------------------------------------------------------
------------------------------------------------------------

-10p12-12(14)~12(14)-12-10-12-13-15-15(17)~15(17)-15-13-12-13-12-10--------
-------------------------------------------------------------------13-12-10
---------------------------------------------------------------------------
---------------------------------------------------------------------------
---------------------------------------------------------------------------
---------------------------------------------------------------------------

----------------------------------------------------------------------------------
----------------------10-12-10~--10-9-------------------------7-8-7-----10-11-10--
12-10-9--------9-11-12---------------12~--10h12-10h11--------7-----7---10-------10
-------12-10-12--------------------------------------12-10~-7---------10----------
----------------------------------------------------------------------------------
----------------------------------------------------------------------------------
							     [D]
----------------------------------------------------------------------------------
--5-6-5-------12-10--12-10----7-8-7----10-11-10-----5-6-5---7---------------------
-5-----5------12-10--12-10---7-----7--10-------10--5-----5--7---------------------
5--------1012-----12-------7--------10-----------5---------7---------------------
------------------------------------------------------------5---------------------
----------------------------------------------------------------------------------
                                                          Whoa(Voice and Talk box)

Outro (Talk Box Off) (Distorted with Leslie and slight echo and reverb)
[D]          [FMAJ7]   [C]       [D]	 [D]      [FMAJ7]  [C]      [D]
-2-2-3p2-0---0-0----0------------2-2-2-2--2-2-2-2--0-0-0-0-----------2-2-2-2-
-3-3----3----1-1-1h3-3--5-5-5-5--3-3-3-3--3-3-3-3--1-1-1-1--5-5-5-5--3-3-3-3-
-2-2------2--2-2--------5-5-5-5--2-2-2-2--2-2-3-2--2-2-2-2--5-5-5-5--2-2-2-2-
-0-0---------3-3--------5-5-5-5--0-0-0-0--0-0-0-0--3-3-3-3--5-5-5-5--0-0-0-0-
-------------3-3--------3-3-3-3-----------------------------3-3-3-3----------
-----------------------------------------------------------------------------

Guitar Lead 3
------13------------13--------------10h13p10--13-10------------------------
-10-13--13(15)~-10-13--13(15)~-10-13--------13-----13-10-------------12-10-
---------------------------------------------------------12(13)12p10-12-10-
---------------------------------------------------------------------------
---------------------------------------------------------------------------
---------------------------------------------------------------------------

--------------------------------------------------------------------------------
--------------------------------------------------12----12-12-12-10-12-12(13)12-
--------------------------------10-12-12(14)12p10-12-10-12-12-12-10-12-12(13)12-
-12-10-----------------10-10-12-------------------------------------------------
-------12-11-10-8-10/12-12------------------------------------------------------
--------------------------------------------------------------------------------

----------------------------------------------------------------------------------10-
10-12~----------------------12-12-10----------10---------10-------10-12-10------10---
10-12~-12-12-12-12-12-12-12-12-12-10h11-------10h11------10h11----10-12-10-12(13)----
---------------------------------------12-10------12-10----12-10---------------------
--------------------------------------------12---------12-------12-------------------
-------------------------------------------------------------------------------------

------10-15p12-15p12-15p12-15p12-12-15(17)-15(17)-15-13-15-13-15-(17)15-13-15-13-------
13(14)--------------------------------------------------------------------------15-13--
------------------------------------------------------------------------------------14~
---------------------------------------------------------------------------------------
---------------------------------------------------------------------------------------
---------------------------------------------------------------------------------------

15-15-15-15-15-15-15-15-1514-14-14-1412-12-12-12-10-10-10-10/12-12-12-12/13-13-13-13/
---------------------------------------------------------------------------------------
12-12-12-12-12-12-12-12-1211-11-11-11-9--9--9--9-7--7--7--7/-9--9--9--9/10-10-10-10/
---------------------------------------------------------------------------------------
---------------------------------------------------------------------------------------
---------------------------------------------------------------------------------------

15-15-15-15/17-17-17-17-17-17-17-1715-15-15-15/17-17-17-1719-19-19-1917-17-17-1715-
---------------------------------------------------------------------------------------
12-12-12-12/14-14-14-14-14-14-14-1412-12-12-12/14-14-14-1416-16-16-1614-14-14-1412-
---------------------------------------------------------------------------------------
---------------------------------------------------------------------------------------
---------------------------------------------------------------------------------------

15-15/17-17-1715-15-1514-14-1412-12-12-12/14-14-14-14/12-12-12-1210-10-10-10/12-12-
---------------------------------------------------------------------------------------
12-12/14-14-1412-12-1211-11-11-9--9--9--9/11-11-11-11/-9--9--9--9-7--7--7--7/-9--9-
---------------------------------------------------------------------------------------
---------------------------------------------------------------------------------------
---------------------------------------------------------------------------------------

12-12/13-13-13-13/15-15-15-15/17-17-17-17/20-20-20-20-20-20-20-20-20-20-20-20-20-20-
------------------------------------------------------------------------------------
-9--9/10-10-10-10/12-12-12-12/14-14-14-14/17-17-17-17-17-17-17-17-17-17-17-17-17-17-
------------------------------------------------------------------------------------
------------------------------------------------------------------------------------
------------------------------------------------------------------------------------

20-20/22-22-22-22-22-22-22-22-22-22-22-22-22-22-22--13/14-14-13-14-14-13-14-14-13-14-
------------------------------19-19-19-19-19-19-19-----------------------------------
17-17/19-19-19-19-19-19-19-19-19-19-19-19-19-19-19--13/14-14-13-14-14-13-14-14-13-14-
-------------------------------------------------------------------------------------
-------------------------------------------------------------------------------------
-------------------------------------------------------------------------------------

14-16/17-17-16-17-17-16-17-17-16-17-17-11/12-12-11-12-12-11-12-12-12-12-12----14-----
--------------------------------------------------------------------------------15---
14-16/17-17-16-17-17-16-17-17-16-17-17-11/12-12-11-12-12-11-12-12-12-12-12--14----14-
-------------------------------------------------------------------------------------
-------------------------------------------------------------------------------------
-------------------------------------------------------------------------------------
								     
-14------13/14-14-13-14-14-13-14-14-13-14-14-16/17-17-16-17-17-16-17-17-16-17-
---15-------------------------------------------------------------------------
-----14--13/14-14-13-14-14-13-14-14-13-14-14-16/17-17-16-17-17-16-17-17-16-17-
------------------------------------------------------------------------------
------------------------------------------------------------------------------
------------------------------------------------------------------------------

					         [D] [D] [D] [D]
17-11/12-12-11-12-12-11-12-12-11-12-12-14--14--14--14-
---------------------------------------15--15--15--15-
17-11/12-12-11-12-12-11-12-12-11-12-12-14--14--14--14-
----------------------------------------0---0---0---0-
------------------------------------------------------
------------------------------------------------------

(slowing tempo)                    [F#] [G]
------------------------------------2----3-----------------------10-12-13p12p10-
------------------------------------2----3----------------8-10/12---------------
-5--7-5-----------------------------3----4-------------7-9----------------------
--7----7-5--3--65-3----3--65-3----4----5------5-7-7/9-------------------------
-------------5------5-3---5-----5-0-4----5---5-7--------------------------------
------------------------------------2----3--7-----------------------------------

>12-13p12p1017p14-------15
Comments