Frames - Revelate Chords & Tabs

 

Revelate Chords & Tabs

Frames Chords & Tabs

Version: 2 Type: Chords 0 ratings
1 star 2 stars 3 stars 4 stars 5 stars
comments

Revelate Chords

   
                            Revelate
                                     by 'The Frames'
The Frames best known song by far. Check out their other songs, well worth playing!! Alan4

Intro & Verse;
   C#m       E         A        F#m
e---4--------0--------5--------2----|
B---5--------0--------5--------2----|
G---6--------1--------6--------3----|
D---6--------2--------7--------4----|
A---4--------2--------7--------4----|
E---4--------0--------5--------2----|


Verse;
My simple slant, this broken chant,
My human faith, my revelate,
Are you so far from me this day that you can say 
My revelate

My open arms, my lucky charms,
My number eights, my revelate,
I fucked it all, I rest my case,
'cos it's all too great, my revelate

[ Tab from: http://www.guitartabs.cc/tabs/f/frames/revelate_crd_ver_2.html ]
Chorus;
         E       F#m       A        B
e--------0--------2--------5--------7----|
B--------0--------2--------5--------7----|
G--------1--------3--------6--------8----|
D--------2--------4--------7--------9----|
A--------2--------4--------7--------9----|
E--------0--------2--------5--------7----|

E F#m A             B
       Sometimes I need a revelation,
E F#m A                B             
       Sometimes it's all too hard to take,
       Sometimes I need a revelation,
       This time I'm making my own now,

     C#m   E  A  F#m


  For the "Redeem Yourself" part, start at C#m and move down one fret at a time.

That's all I've got. Help or corrections welcome.
 alnug@eircom.net
Comments