Fragile Line Of Existence - Desolation Chords & Tabs

 

Desolation Chords & Tabs

Fragile Line Of Existence Chords & Tabs

Version: 1 Type: Tab 0 ratings
1 star 2 stars 3 stars 4 stars 5 stars
comments

Desolation Tab

Desolation~Fragile Line of Existence

Guitar I- Clean (Reverb)
Guitar II- Clean (Chorus)
Guitar III- Overdrive


Guitar I

e|-------------------|-----------------|-----------------|-------------------|
B|-*-----------------|-----------------|-----------------|-----------------*-|
G|-------------------|-----------------|-----------------|-------------------|
D|-------------------|-2-4-5-4-2-5-4-2-|-----------------|-4-------2---------|
A|-*-2-4-5-4-2-5-4-2-|-----------------|-2-4-5-4-2-5-4-2-|-4-------2-------*-|
E|-------------------|-----------------|-----------------|-2-------0---------|

Guitar II

e|-------------------|-----------------|-----------------|-------------------|
B|-*-----------------|-----------------|-----------------|-----------------*-|
G|-------------------|-4-------4-------|-----------------|-------------------|
D|---4-------4-------|-2-------2-------|-4-------4-------|-4-------2---------|
A|-*-2-------2-------|-----------------|-2-------2-------|-4-------2-------*-|
E|-------------------|-----------------|-----------------|-2-------0---------|



Guitar I
									   x4
e|-------------------|-----------------|-----1p0---------|-----1p0-----------|
B|-*-----------------|-----------------|-2h3-----2h3-----|-2h3-----2h3-----*-|
G|-------2p1---------|-----2p1---------|-------------2p1-|-------------2p1---|
D|---2h3-----2h3-----|-2h3-----2h3-----|-----------------|-------------------|
A|-*-------------2p1-|-------------2p1-|-----------------|-----------------*-|
E|-------------------|-----------------|-----------------|-------------------|

Guitar II
       PM...   PM...     PM...   PM.......................................
e|-------------------|-----------------|-----------------|-------------------|
B|-*-----------------|-----------------|-----------------|-----------------*-|
G|---2-------2-------|-2-------2-------|-----------------|-------------------|
D|---2-------2-------|-2-------2-------|-----3p2---------|-----3p2-----------|
A|-*-0-0-0-0-0-0-0-0-|-0-0-0-0-0-0-0-0-|-4h5-----4h5-----|-4h5-----4h5-----*-|
E|-------------------|-----------------|-------------5p4-|-------------5p4---|



Guitar I

e|-------------------|-----------------|-----------------|-------------------|
B|-*-----------------|-----------------|-----------------|-----------------*-|
G|-------------------|-----------------|-----------------|-------------------|
D|-------------5-4---|-----------4-5---|-----------5-4---|---------4-5-4-----|
A|-*-2-4-5-4-2-----5-|-2-4-5-4-2-------|-2-4-5-4-2-----5-|-2-4-5-4---------*-|
E|-------------------|-----------------|-----------------|-------------------|

Guitar II

e|-------------------|-----------------|-----------------|-------------------|
B|-*-----------------|-----------------|-----------------|-----------------*-|
G|-------------------|-4-------4-------|-----------------|-------------------|
D|---4-------4-------|-2-------2-------|-4-------4-------|-4-------2---------|
A|-*-2-------2-------|-----------------|-2-------2-------|-4-------2-------*-|
E|-------------------|-----------------|-----------------|-2-------0---------|


[ Tab from: http://www.guitartabs.cc/tabs/f/fragile_line_of_existence/desolation_tab.html ]
Guitar I
									   x4
e|-------------------|-----------------|-----1p0---------|-----1p0-----------|
B|-*-----------------|-----------------|-2h3-----2h3-----|-2h3-----2h3-----*-|
G|-------2p1---------|-----2p1---------|-------------2p1-|-------------2p1---|
D|---2h3-----2h3-----|-2h3-----2h3-----|-----------------|-------------------|
A|-*-------------2p1-|-------------2p1-|-----------------|-----------------*-|
E|-------------------|-----------------|-----------------|-------------------|

Guitar II
       PM...   PM...     PM...   PM.......................................
e|-------------------|-----------------|-----------------|-------------------|
B|-*-----------------|-----------------|-----------------|-----------------*-|
G|---2-------2-------|-2-------2-------|-----------------|-------------------|
D|---2-------2-------|-2-------2-------|-----3p2---------|-----3p2-----------|
A|-*-0-0-0-0-0-0-0-0-|-0-0-0-0-0-0-0-0-|-4h5-----4h5-----|-4h5-----4h5-----*-|
E|-------------------|-----------------|-------------5p4-|-------------5p4---|



Guitar II

e|-------------------|-----------------|-----------------|-------------------|
B|-*-----------------|-----------------|-----------------|-----------------*-|
G|-------------------|-----------------|-----------------|-------------------|
D|-------------------|-2-4-5-4-2-5-4---|-----------------|-4-------2---------|
A|-*-2-4-5-4-2-4-5---|-----------------|-2-4-5-4-2-4-5---|-4-------2-------*-|
E|-------------------|-----------------|-----------------|-2-------0---------|



Guitar III

e|---------------------------------|-------------------------------|-------------------------------|-----------------------------|
B|-*-------------11--11h12-12--11--|-------------12--12p11-11------|-------------11--11h12-12--11--|---------------------------*-|
G|---9--9h11-12--------------------|-9--9h11-12----------------12--|-9--9h11-12--------------------|-9--9h11-12--11--11p9-8--9---|
D|---------------------------------|-------------------------------|-------------------------------|-----------------------------|
A|-*-------------------------------|-------------------------------|-------------------------------|---------------------------*-|
E|---------------------------------|-------------------------------|-------------------------------|-----------------------------|

Guitar II

e|---------------------------------|-------------------------------|-------------------------------|-----------------------------|
B|-*-------------------------------|-------------------------------|-------------------------------|---------------------------*-|
G|---------------------------------|-4---------------4-------------|-------------------------------|-----------------------------|
D|---4---------------4-------------|-2---------------2-------------|-4---------------4-------------|-4---------------2-----------|
A|-*-2---------------2-------------|-------------------------------|-2---------------2-------------|-4---------------2---------*-|
E|---------------------------------|-------------------------------|-------------------------------|-2---------------0-----------|



Guitar I

e|-------------------|-----------------|-----------------|-------------------|
B|-*-----------------|-----------------|-----------------|-----------------*-|
G|-------------------|-----------------|-----------------|-------------------|
D|-------------------|-2-4-5-4-2-5-4-2-|-----------------|-4-------2---------|
A|-*-2-4-5-4-2-5-4-2-|-----------------|-2-4-5-4-2-5-4-2-|-4-------2-------*-|
E|-------------------|-----------------|-----------------|-2-------0---------|

Guitar II

e|-------------------|-----------------|-----------------|-------------------|
B|-------------------|-----------------|-----------------|-----------------*-|
G|-------------------|-4-------4-------|-----------------|-------------------|
D|---4-------4-------|-2-------2-------|-4-------4-------|-4-------2---------|
A|-*-2-------2-------|-----------------|-2-------2-------|-4-------2-------*-|
E|-------------------|-----------------|-----------------|-2-------0---------|
Comments