Fra Lippo Lippi - Stitches And Burns Chords & Tabs

 

Stitches And Burns Chords & Tabs

Fra Lippo Lippi Chords & Tabs

Version: 2 Type: Tab 0 ratings
1 star 2 stars 3 stars 4 stars 5 stars
comments

Stitches And Burns Tab

   
No one has tabbed this song so I decided to do it!
It's really easy

*1-insert fill 1
*2-insert fill 2
h-hammer
/-slide upward


INTRO:(chords)
F-G-C-F
Am-G-Am-F

VERSE:(chords)
Am-G-C-F
Am-G-Am-F

Chorus:(do intro chords)

Intro: 2x (insert fill on the second time)
e-|---------------------------------------------------------------|- 
B-|-3-1-3-1-3-5-3-1---3----3-1-3-1-3-5-3-1------------------------|- 
G-|-----------------2----------------------0-2--------------------|-
D-|---------------------------------------------------------------|-
A-|---------------------------------------------------------------|- 
E-|---------------------------------------------------------------|-
              *1                     *2 

Intro:(fill 1)      (fill 2)
e-|--------------|--------------------|- 
B-|-5-3-1---3----|---5-3-1------------|- 
G-|-------2------|---------0-2--------|-
D-|--------------|--------------------|-
A-|--------------|--------------------|- 
E-|--------------|--------------------|-
[ Tab from: http://www.guitartabs.cc/tabs/f/fra_lippo_lippi/stitches_and_burns_tab_ver_2.html ]
solo
e-|-----------|--------------|-------------|------------|- 
B-|-1-1/5-3---|---1-------1--|-1-3-5-3-1-3-|-5-6-8-1-1--|- 
G-|-----------|-----4-2-0----|-------------|------------|-
D-|-----------|--------------|-------------|------------|-
A-|-----------|--------------|-------------|------------|- 
E-|-----------|--------------|-------------|------------|-


e-|--------------|---------------------|----------------|- 
B-|--1-3-5-------|-------1-1-3-3-h5-1--|---/5-3---------|- 
G-|--------2-0---|-0-2-3---------------|-3--------------|-
D-|--------------|---------------------|----------------|-
A-|--------------|---------------------|----------------|- 
E-|--------------|---------------------|----------------|-


e-|--------------|-------------|------------------------|- 
B-|-5-6-8-8-6-5--|---3-5-h6-1--|----3-1-5-3-------------|- 
G-|--------------|-------------|--2---------------------|-
D-|--------------|-------------|------------------------|-
A-|--------------|-------------|------------------------|- 
E-|--------------|-------------|------------------------|-


e-|-------|------------------------|- 
B-|-5-3-1-|---1-5-3-1-3-1(fade)----|- 
G-|-------|-2----------------------|-
D-|-------|------------------------|-
A-|-------|------------------------|- 
E-|-------|------------------------|-
Comments