Fra Lippo Lippi - Stitches And Burn Chords & Tabs

 

Stitches And Burn Chords & Tabs

Fra Lippo Lippi Chords & Tabs

Version: 1 Type: Bass Tab 0 ratings
1 star 2 stars 3 stars 4 stars 5 stars
comments

Stitches And Burn Bass Tab

stitches and burn
bass tab
standard

intro/chorus:
|------------------------------------------------|
|-------------------------------0----------------|
|--------------------------3--3---3---0--0-0--0--|
|-1--1-1--1----3--3-3--3-------------------------|

|------------------------------------------------|
|------------------------------------------------|
|--------------------------0--0-2-0--------------|
|-1--1-1--1----3--3-3--3--------------1--1-1--1--|

verses:
|-------------------------------------------------|
|-------------------------------0-----------------|
|--------------------------3--3---3---------------|
|-1--1-1--1----3--3-3--3--------------1--1-1--1---|

|--------------------------------------------------|
|--------------------------------------------------|
|--------------------------0--0-2-0----------------|
|-1--1-1--1----3--3-3--3--------------1--1-1--1----|
[ Tab from: http://www.guitartabs.cc/tabs/f/fra_lippo_lippi/stitches_and_burn_btab.html ]
|-------------------------------------------------|
|-------------------------------0-----------------|
|--------------------------3--3---3---------------|
|-1--1-1--1----3--3-3--3--------------1--1-1--1---|

|------------------------------------------------------------|
|------------------------------------------------------------|
|--------------------------0--0-2-0---0--0-0--0---0--0-0--0--|
|-1--1-1--1----3--3-3--3-------------------------------------|
chorus:
verse 2:
chorus:

bridge:
|-----------------------------------------------------------------|
|-----7---------------------------------7-------------------------|
|-5-5--------5---3-5-7-5-3------3---5-5-------2-----3------5------|
|--------3-3----------------1-1-----------0-0---1-1----3-3--------|

|-----------------------------------------------------------------------|
|-----7---------------------------------7-------------------------------|
|-5-5--------5---3-5-7-5-3------3---5-5-------2-----3-------------------|
|--------3-3----------------1-1-----------0-0---1-1----3-3-3-3-3-3-3-3--|



Comments