Fra Lippo Lippi - Beauty And Madness Chords & Tabs

 

Beauty And Madness Chords & Tabs

Fra Lippo Lippi Chords & Tabs

Version: 4 Type: Tab 0 ratings
1 star 2 stars 3 stars 4 stars 5 stars
comments

Beauty And Madness Tab

song : beauty and madness
artist : fra lippo lippi
date : october 20,2001
time : 10:31 am
tabber : ^slaPped^


** this is just the intro for the song "beauty and madness"


_ _ _ _ _ _ _ _ _ _ _ _ _ _ _ _ _ _ _ _ _ _ _ _ _ _ _ _ _ _ _


intro
e| ---------------------0---------------------------|
b| -----3-------------------0-----------------------|
a| -----------0-------------------------------------|
d| ----------------0--------------------------------|
a| -----5-------------------------------------------|
e| -------------------------------------------------|


e| ----2------3------------3-------------------------|
b| ---------------------------------3----------------|
a| -------------------2------------------------------|
d| ----0------0--------------------------------------|
a| --------------------------------------------------|
e| --------------------------------------------------|


e| -----------3------------3-------------------------|
b| ----5------------3-------------1------------------|
a| ----5------------3-------------1------------------|
d| --------------------------------------------------|
a| --------------------------------------------------|
e| --------------------------------------------------|

[ Tab from: http://www.guitartabs.cc/tabs/f/fra_lippo_lippi/beauty_and_madness_tab_ver_4.html ]
e| --------------------------------------------------|
b| ----7------5------3-------------------------------|
a| ----7------5------3-------------------------------|
d| --------------------------------------------------|
a| --------------------------------------------------|
e| --------------------------------------------------|


e| ----------------------------------------------------------------------------------------|
b| ----------------------------------------------------------------------------------------|
a| ---------------------7-------------7-------5------4------2------------------------------|
d| ----------------------------0--------------------------------------5-----5-----4--------|
a| -----2-----3------- 5----------------------3------2------0------0-----0-----5-----------|
e| ----------------------------------------------------------------------------------------|

_ _ _ _ _ _ _ _ _ _ _ _ _ _ _ _ _ _ _ _ _ _ _ _ _ _ _ _ _ _ _ _ _ _ _ _ _ _ _


HI na lang sa mga barkada ko sa ateneo de naga !!!!!

oi dutch ! ayan na ang tabs....

i have two versions for this
i will release the other one by next week
its our sembreak and i am doing nothing
so i made this for its a hit here in naga city

to the one who made "power of two" tabs,
          i dont get it?!?!?!?!??!

if you are a chatter, you can see me at

#bolahan, #nu107, #bicol, #bicolexpress
on mIRC with the nick ^slaPped^


PINOYS FOR LIFE
Comments