Fra Lippo Lippi - Beauty And Madness Chords & Tabs

 

Beauty And Madness Chords & Tabs

Fra Lippo Lippi Chords & Tabs

Version: 3 Type: Tab 0 ratings
1 star 2 stars 3 stars 4 stars 5 stars
comments

Beauty And Madness Tab

intro    
e| ---------------------0--------------------------
b| -----3-------------------0----------------------
a| -----------0------------------------------------
d| ----------------0-------------------------------
a| -----5------------------------------------------
e| ------------------------------------------------


e| ----2------3------------3-----------------------
b| ---------------------------------3--------------
a| -------------------2----------------------------
d| ----0------0------------------------------------
a| ------------------------------------------------
e| ------------------------------------------------


e| -----------3------------3-----------------------
b| ----5------------3-------------1----------------
a| ----5------------3-------------1----------------
d| ------------------------------------------------
a| ------------------------------------------------
e| ------------------------------------------------


e| ------------------------------------------------
b| ----7------5------3-----------------------------
a| ----7------5------3-----------------------------
d| ------------------------------------------------
a| ------------------------------------------------
e| ------------------------------------------------

[ Tab from: http://www.guitartabs.cc/tabs/f/fra_lippo_lippi/beauty_and_madness_tab_ver_3.html ]
intro    
e| ---------------------0--------------------------
b| -----3-------------------0----------------------
a| -----------0------------------------------------
d| ----------------0-------------------------------
a| -----5------------------------------------------
e| ------------------------------------------------


e| ----2------3------------3-----------------------
b| ---------------------------------3--------------
a| -------------------2----------------------------
d| ----0------0------------------------------------
a| ------------------------------------------------
e| ------------------------------------------------


e| -----------3------------3-----------------------
b| ----5------------3-------------1----------------
a| ----5------------3-------------1----------------
d| ------------------------------------------------
a| ------------------------------------------------
e| ------------------------------------------------


e| ------------------------------------------------
b| ----7------5------3-----------------------------
a| ----7------5------3-----------------------------
d| ------------------------------------------------
a| ------------------------------------------------
e| ------------------------------------------------

[ Tab from: http://www.guitartabs.cc/tabs/f/fra_lippo_lippi/beauty_and_madness_tab_ver_3.html ]---aiah---
Comments