Fra Lippo Lippi - Beauty And Madness Chords & Tabs

 

Beauty And Madness Chords & Tabs

Fra Lippo Lippi Chords & Tabs

Version: 2 Type: Tab 0 ratings
1 star 2 stars 3 stars 4 stars 5 stars
comments

Beauty And Madness Tab


Tabbed by Ricky

[ Tab from: http://www.guitartabs.cc/tabs/f/fra_lippo_lippi/beauty_and_madness_tab_ver_2.html ]
Intro: 2 times
Verse: 2 times
e-0---0--4-5-0---0---0h2-2-0-5-----0---4-2-0--0-------0--0-------------
b---0--0--------0-0------------3--3-3--------0-0--2-3---0-0--3-2-0-----
g--2----2------2---2-------------2---2------2---2------2---2-----------
d--------------------0---0-0-0-0-----------------------------5-4-0-----
a-4------4-4-4-----------------------------4----------4----------------
E----------------------------------------------------------------------

e----------------0-----------------------------------------------------
b----------------------------------------------------------------------
g----1-2--------1------------------------------------------------------
d---2---2/4\---2-------------------------------------------------------
a--2----------2--------------------------------------------------------
E-0----------0---------------------------------------------------------
Comments