Fozzy - To Kill A Stranger Chords & Tabs

 

To Kill A Stranger Chords & Tabs

Fozzy Chords & Tabs

Version: 1 Type: Tab 2 ratings
1 star 2 stars 3 stars 4 stars 5 stars
comments

To Kill A Stranger Tab

   
Intro A (Guitar 1)
d-----------------------------------------------------------
A--------------------------------------------6v*------------
F-----------------------------------------------------------
C-----------------------------------------------------------
G--5-5-5-3/5v--5-5-5-3/5v--5-5-5-3/5v--5-5-5----------------
C--0-0-0-------0-0-0-------0-0-0-------0-0-0----------------

Intro B (Guitar 2)
d-----------------------------------------------------------
A-----------------------------------------------------------
F--------------------------------------------7v-------------
C-----------------------------------------------------------
G--5-5-5-3/5v--5-5-5-3/5v--5-5-5-3/5v--5-5-5----------------
C--0-0-0-------0-0-0-------0-0-0-------0-0-0----------------

Riff A (Guitar 1, palm muted except notes with a ` in front)
d-----------------------------------------------------------
A-----------------------------------------------------------
F-----------------------------------------------------------
C--------------------------------------------------`3-------
G--5-5--5-5-5-5--5--5-5-5-5-5--5--5-5-5-5-5--5--5--`3-------
C--0-0--0-0-0-0--0--0-0-0-0-0--0--0-0-0-0-0--0--0--`3-------

(continued)
d-----------------------------------------------------------
A-----------------------------------------------------------
F-----------------------------------------------------------
C-----------------------------------------------------------
G--5-5--5-5-5-5--5--5-5-5-5-5--5--5-5-5-5-5--5--5--`3/5v----
C--0-0--0-0-0-0--0--0-0-0-0-0--0--0-0-0-0-0--0--0-----------

(continued)
d-----------------------------------------------------------
A-----------------------------------------------------------
F-----------------------------------------------------------
C--------------------------------------------------`3-------
G--5-5--5-5-5-5--5--5-5-5-5-5--5--5-5-5-5-5--5--5--`3-------
C--0-0--0-0-0-0--0--0-0-0-0-0--0--0-0-0-0-0--0--0--`3-------

(continued)
d-----------------------------------------------------------
A-----------------------------------------------------------
F-----------------------------------------------------------
C--0-0-3-5-3--'0-------------0-0-3-5-3--'0--'3--------------
G--0-0-3-5-3--'0-----'3/5v---0-0-3-5-3--'0--'3--------------
C--0-0-3-5-3--'0--'0---------0-0-3-5-3--'0--'3--------------

Riff B (Guitar 2, palm muted except notes with a ` in front)
d-----------------------------------------------------------
A--------------------------------------------------'6v*-----
F-----------------------------------------------------------
C-----------------------------------------------------------
G--5-5--5-5-5-5--5--5-5-5-5-5--5--5-5-5-5-5--5--5-----------
C--0-0--0-0-0-0--0--0-0-0-0-0--0--0-0-0-0-0--0--0-----------

(continued)
d-----------------------------------------------------------
A-----------------------------------------------------------
F-----------------------------------------------------------
C-----------------------------------------------------------
G--5-5--5-5-5-5--5--5-5-5-5-5--5--5-5-5-5-5--5--5--`3/5v----
C--0-0--0-0-0-0--0--0-0-0-0-0--0--0-0-0-0-0--0--0-----------

(continued)
d-----------------------------------------------------------
A--------------------------------------------------'6v*-----
F-----------------------------------------------------------
C-----------------------------------------------------------
G--5-5--5-5-5-5--5--5-5-5-5-5--5--5-5-5-5-5--5--5-----------
C--0-0--0-0-0-0--0--0-0-0-0-0--0--0-0-0-0-0--0--0-----------

(continued)
d-----------------------------------------------------------
A-------------------------------------------'6v*------------
F-----------------------------------------------------------
C--0-0-3-5-3--'0-------------0-0-3-5-3--'0------------------
G--0-0-3-5-3--'0-----'3/5v---0-0-3-5-3--'0------------------
C--0-0-3-5-3--'0--'0---------0-0-3-5-3--'0------------------


Riff C (Guitar 2)
d-----------------------------------------------------------
A--8---10----11--12---7/87--------8---10---11--12--7/87-
F----------------------------8-7v---------------------------
C----0----0---------------------------0----0----------------
G-----------------------------------------------------------
C-----------------------------------------------------------

(continued)
d-----------------------------------------------------------
A--------8---10----11--12---7/87--------8---10---11--12--
F--8-7v----------------------------8-7v---------------------
C----------0----0---------------------------0----0----------
G-----------------------------------------------------------
C-----------------------------------------------------------

(continued)
d-----------------------------------------------------------
A--8/10--10/11--11/14--1411--1110--8/10v------------------
F-----------------------------------------------------------
C-----------------------------------------------------------
G-----------------------------------------------------------
C-----------------------------------------------------------


Verse A (Guitar 1, palm muted)
d-----------------------------------------------------------
A-----------------------------------------------------------
F-----------------------------------------------------------
C-----------------------------------------------------------
G--5-5-5-5-5-5-5-5-5-5-5-5-5-5-5-5-5-5-5-5-5-5-5-5-5-5-5-5--
C--0-0-0-0-0-0-0-0-0-0-0-0-0-0-0-0-0-0-0-0-0-0-0-0-0-0-0-0--

(continued)
d-----------------------------------------------------------
A-----------------------------------------------------------
F-----------------------------------------------------------
C-----------------------------------------------------------
G--5-5-5-5--5-5-5-5-5-5-5-5-5-5-5-5-5-5-5-5-5-5-5-5-5-5-5-5-
C--5-5-5-5--0-0-0-0-0-0-0-0-0-0-0-0-0-0-0-0-0-0-0-0-0-0-0-0-

(continued)
d-----------------------------------------------------------
A-----------------------------------------------------------
F-----------------------------------------------------------
C-----------------------------------------------------------
G--3-3/5-5--------------------------------------------------
C--0-0-0-0--------------------------------------------------

Verse B (Guitar 2, palm muted)
d-----------------------------------------------------------
A-----------------------------------------------------------
F--10-10-10-10-10-10-10-10-10-10-10-10-10-10-10-10-10-10----
C---x--x--x--x--x--x--x--x--x--x--x--x--x--x--x--x--x--x----
G---8--8--8--8--8--8--8--8--8--8--8--8--8--8--8--8--8--8----
C---0--0--0--0--0--0--0--0--0--0--0--0--0--0--0--0--0--0----

(continued)
d-----------------------------------------------------------
A-----------------------------------------------------------
F--10-10-10-10-10-10-10-10-10-10-10-10-10-10-12-12-12-12----
C---x--x--x--x--x--x--x--x--x--x--x--x--x--x--x--x--x--x----
G---8--8--8--8--8--8--8--8--8--8--8--8--8--8-10-10-10-10----
C---0--0--0--0--0--0--0--0--0--0--0--0--0--0--0--0--0--0----
[ Tab from: http://www.guitartabs.cc/tabs/f/fozzy/to_kill_a_stranger_tab.html ]
Pre-Chorus 1A (Guitar 1, played twice)
d-----------------------------------------------------------
A-----------------------------------------------------------
F-----------------------------------------------------------
C--0-0------7-5-----3-3------8-7-5--------------------------
G--0-0--5h7-----8---3-3--5h7--------------------------------
C--0-0--------------3-3-------------------------------------

Pre-Chorus 1B (Guitar 2, played twice)
d-----------------------------------------------------------
A-----------------------------------------------------------
F-----------------------------------------------------------
C--0-0------3-2-0---3-3------5-3-2--------------------------
G--0-0--1h3---------3-3--1h3--------------------------------
C--0-0--------------3-3-------------------------------------

Chorus A (Guitar 1)
d-----------------------------------------------------------
A-----------------------------------------------------------
F-----------------------------------------------------------
C---------7m-------------------10----7----------------------
G------8m----8m-10m-8m-7m-8m---10----7----------------------
C--0m--------------------------10----7----------------------

Chorus B (Guitar 2)
d-----------------------------------------------------------
A-----------------------------------------------------------
F-----------------------------------------------------------
C--0----12----10----7-----0----12----10----7----------------
G--0----12----10----7-----0----12----10----7----------------
C--0----12----10----7-----0----12----10----7----------------


Bridge (played twice)
d-----------------------------------------------------------
A-----------------------------------------------------------
F---------------------------------------5-------------------
C--2m-2m-2m-2m--4m-5m-4m---2m-2m-2m-2m--5---2m-2m-2m-2m-----
G--2m-2m-2m-2m--4m-5m-4m---2m-2m-2m-2m--3---2m-2m-2m-2m-----
C--2m-2m-2m-2m--4m-5m-4m---2m-2m-2m-2m------2m-2m-2m-2m-----

(continued)
d-----------------------------------------------------------
A-----------------------------------------------------------
F--------------------------7--------------------------------
C--4m-5m-4m---2m-2m-2m-2m--7---2m-2m-2m-2m--4m-5m-4m--------
G--4m-5m-4m---2m-2m-2m-2m--5---2m-2m-2m-2m--4m-5m-4m--------
C--4m-5m-4m---2m-2m-2m-2m------2m-2m-2m-2m--4m-5m-4m--------

(continued)
d-----------------------------------------------------------
A-----------------------------------------------------------
F---------------5---------------3----------------3----------
C--2m-2m-2m-2m--5--2m-2m-2m-2m--3---2m-2m-2m-2m--3----------
G--2m-2m-2m-2m--3--2m-2m-2m-2m--1---2m-2m-2m-2m--1----------
C--2m-2m-2m-2m-----2m-2m-2m-2m------2m-2m-2m-2m-------------


Solo 1
d--------------------------------------------19------------
A--12h15t17p12-h15t17p12-h15t17p12-h15t17v---------12v------
F-----------------------------------------------------------
C-----------------------------------------------------------
G-----------------------------------------------------------
C-----------------------------------------------------------

(continued)
d--19--19--19--19v----15-17-17-15-17-17-15--14-15-15-------
A--19--19--19--19v-----------------------------------------
F-----------------------------------------------------------
C-----------------------------------------------------------
G-----------------------------------------------------------
C-----------------------------------------------------------

(continued)
d--14-15-15-14--12^*-12^*-12^*--12^*-12^*-12^*--12^*--------
A-----------------------------------------------------------
F-----------------------------------------------------------
C-----------------------------------------------------------
G-----------------------------------------------------------
C-----------------------------------------------------------

(continued)
d-----------------------------6^----------------------------
A---------------------------------5v-----------------------
F--9-12-11-9-7-9-8-9-8-7-8-7--------------------------------
C-----------------------------------------------------------
G-----------------------------------------------------------
C-----------------------------------------------------------

Solo 2A (Guitar 2)
d------|----------------------------------------------------
A------|----------------------------------------------------
F--10--|--9-10-9---9-10-12---10-9-10---9-10-10---9-10-------
C------|----------------------------------------------10----
G------|----------------------------------------------------
C------|----------------------------------------------------

(continued)
d-----------------------------------------------------------
A-----------------------------------------------------------
F-----------------------------------------------------------
C----7-8-7-------------------------------------------------
G-----------------------------------------------------------
C-----------------------------------------------------------

Solo 2B (Guitar 3)
d-----------------------------------------------------------
A-----------------------------------------------------------
F--12-14-12---12-14-15---14-12-14---12-14-14---12-14--------
C----------------------------------------------------12-----
G-----------------------------------------------------------
C-----------------------------------------------------------

(continued)
d-----------------------------------------------------------
A-----------------------------------------------------------
F-----------------------------------------------------------
C----10-12-10----------------------------------------------
G-----------------------------------------------------------
C-----------------------------------------------------------

Outro 1
d-----------------------------------------------------------
A--6^*----6^*----6^*----6^*----6^*----6^*----6^*------------
F-----------------------------------------------------------
C-----------------------------------------------------------
G-----------------------------------------------------------
C-----------------------------------------------------------

Outro 2 (palm muted except notes with a ` in front)
d-----------------------------------------------------------
A-------------------------------------------'6v*------------
F-----------------------------------------------------------
C--0-0-3-5-3--'0-------------0-0-3-5-3--'0------------------
G--0-0-3-5-3--'0-----'3/5v---0-0-3-5-3--'0------------------
C--0-0-3-5-3--'0--'0---------0-0-3-5-3--'0------------------

Intro A, B
Riff A, B
Riff A, C
Verse A, B
Pre-Chorus A, B
Chorus A, B
Riff A, C
Verse A, B
Pre-Chorus A, B
Chorus A, B
Bridge, Solo 1
Chorus B, Solo 2A, 2B
Verse B
Pre-Chorus A, B
Chorus A, B
Intro A
Intro A, Outro 1
Outro 2


Comments