Foxy Shazam - No Dont Shoot Chords & Tabs

 

No Dont Shoot Chords & Tabs

Foxy Shazam Chords & Tabs

Version: 1 Type: Tab 0 ratings
1 star 2 stars 3 stars 4 stars 5 stars
comments

No Dont Shoot Tab

-------------------------------------------------------------------------------
			     NO! don't shoot - Foxy Shazam
-------------------------------------------------------------------------------
Tabbed by:Norm
Email:norm111mob@hotmail.com

Tuning:CGCFAD

main riff/chorus play 4 times
d|--------------------------------------------------------------------------|
a|--------------------------------------------------------------------------|
f|--------------------------------------------------------------------------|
c|-0-0-0-0----7-7-7-7----5-5-5-5----7-7-7-7----3-3--------------------------|
g|-0-0-0-0----7-7-7-7----5-5-5-5----7-7-7-7----3-3--------------------------|
c|-0-0-0-0----7-7-7-7----5-5-5-5----7-7-7-7----3-3--------------------------|
[ Tab from: http://www.guitartabs.cc/tabs/f/foxy_shazam/no_dont_shoot_tab.html ]
verse 1. play 8 times          verse 2. play 4 times
d|--------------------------------------------------------------------------|
a|--------------------------------------------------------------------------|
f|--------------------------------------------------------------------------|
c|-15-15----15-15-----------------------15-15-------15-15-------------------|
g|-13-13----13-13-----------------------13-13-------13-13-------------------|
c|-------------------------------------------0-0-0-0-----0-0-0-0-0-0-0-0----|

ee oo ah..bigity bigity boo
d|---------------------------------------------------------------------------|
a|---------------------------------------------------------------------------|
f|-------7----------------------7--------------------------------------------|
c|-0-0---x----------------0-0---x--------------------------------------------|
g|-0-0---5---000-000-0----0-0---5---000-000-0--------------------------------|
c|-0-0-------000-000-0----0-0-------000-000-0--------------------------------|
Comments