Fourbanger - Suburban Paradise Chords & Tabs

 

Suburban Paradise Chords & Tabs

Fourbanger Chords & Tabs

Version: 1 Type: Tab 0 ratings
1 star 2 stars 3 stars 4 stars 5 stars
comments

Suburban Paradise Tab

hey guys I'm back....well...kinda.  I haven't submitted any new ones cuz I'm
grounded so here is an new one. this one has kinda lead and all of rythm guitars 

Artist: Fourbanger 
Song: suburban paradise
Tabber: justin 


intro:guitar 1
|---------------------------|
|---------------------------|
|5--------------------------|
|5------5------7-----5------|
|3------5------7-----5------|
|-------3------5-----3------|

guitar 2
|------------------|
|------------------|
|5-555h7--5-555h7--|(I think x6)
|------------------|
|------------------|
|------------------|

verse:guitar 1
P.M......
|----------------------------------|-------------|
|----------------------------------|-------------|
|----------------------------------|-------------|  (x2)
|xx55555555---77--55--333333555555-|5-----7------|
|xx55555555---77--55--333333555555-|5-----7------|
|xx33333333---55--33--111111333333-|3-----5------|


guitar 2
|------------------|
|------------------|
|5-555h7--5-555h7--|(I think x3)
|------------------|
|------------------|
|------------------|

Chorus:
both guitars 
|--------------------------------|
|--------------------------------|
|555555555-----------------------| (x2)
|55555555555555555-77--55--333333|
|33333333355555555-77--55--333333|
|---------33333333-55--33--111111|

Interlude thingy:
|-------------|
|-------------|
|-------------|
|------5------|
|------5------|
|------3------|


guitar 2
|------------------|
|------------------|
|5-555h7--5-555h7--|(I think x3)
|------------------|
|------------------|
|------------------|

[ Tab from: http://www.guitartabs.cc/tabs/f/fourbanger/suburban_paradise_tab.html ]
verse:guitar 1
P.M......
|--------------------------------|-------------|
|--------------------------------|-------------|
|--------------------------------|-------------|  (x2)
|55555555---77--55--333333555555-|5-----7------|
|55555555---77--55--333333555555-|5-----7------|
|33333333---55--33--111111333333-|3-----5------|


guitar 2
|------------------|
|------------------|
|5-555h7--5-555h7--|(I think x3)
|------------------|
|------------------|
|------------------|

Chorus:
both guitars 
|--------------------------------|
|--------------------------------|
|555555555-----------------------| (x2)
|55555555555555555-77--55--333333|
|33333333355555555-77--55--333333|
|---------33333333-55--33--111111|

interlude: rythm
|------------------|
|------------------|
|55----------------|
|55---55---33---55-|
|33---55---33---33-|
|-----33---11---33-|

still rythm
|--------------------------|
|--------------------------|
|555555--------------------|
|555555555555333333555555--|
|333333555555333333555555--|
|------333333111111333333--|

verse:
|--------------|
|--------------|
|5-------------|
|5---5---3---5-|
|3---5---3---3-|
|----3---1---3-|

Chorus:
both guitars 
|--------------------------------|
|--------------------------------|
|555555555-----------------------| (x2)
|55555555555555555-77--55--333333|
|33333333355555555-77--55--333333|
|---------33333333-55--33--111111|


well this is it and once again this is getting boring listening to the same song
over and over and over and over and welll over again. but a really good song -k-. 
oh I screwed up hugely on more than meets the eye.  I'm gonna try to fix it too. c-ya
Comments