Four Tops - Its The Same Old Song Chords & Tabs

 

Four Tops Chords & Tabs

Version: 1 Type: Bass Tab 0 ratings
1 star 2 stars 3 stars 4 stars 5 stars
comments

Its The Same Old Song Bass Tab

Its The Same Old Song
Written by: Brian Holland, Lamont Dozier, Edward Holland
Original Artists: The Four Tops
Original Bassist: James Jamerson
Tabbed here by bass50611
Very fast bassline - your fingers will be going a bit quick..!!
Hard if you play a fretless
Any comments - e-mail me at goldenoldie.benson@sky.com

Intro: (play this x4)
----------------|
----0-2---------|
---3---0--0-0---|
-----------3----|
[ Tab from: http://www.guitartabs.cc/tabs/f/four_tops/its_the_same_old_song_btab.html ]
Verse: (play this x3)
---------------------------------------------0-2-0-2-4-0-----|
----0-2----------0-2---------0-2-3-0--0-0---3---3------------|
---3---0--0-0---3---0--0---------------3---------------------|
-----------3------------3-5----------------------------------|

Chorus & Instrumental Break: (play this x2)
---------------0-2-4---------------------0-2-4-0--0-2-----|
----0-2--------------5--5-5--0-2-3---------------3---3----|
---3---0--0--------------5--------5--5-5------------------|
-----------3-5------------------------5-------------------|

Repeat everything  several times but intro is only x2 from
now on.  Chorus repeat at end to Fade

Great song...HAVE FUN...!!!
Comments