Four Tops - I Cant Help Myself Chords & Tabs

 

I Cant Help Myself Chords & Tabs

Four Tops Chords & Tabs

Version: 2 Type: Bass Tab 1 rating
1 star 2 stars 3 stars 4 stars 5 stars
comments

I Cant Help Myself Bass Tab

Intro:(x8)
G--------------------------------------------------------------
D--------------------------------------------------------------
A--3-----3-----3-----------------------------------------------
E----5-3---3-5-------------------------------------------------
[ Tab from: http://www.guitartabs.cc/tabs/f/four_tops/i_cant_help_myself_btab_ver_2.html ]
Rest Of Song:
G--------------------------------------------------------------
D------------------------------5-----5-----5-5-----5-----5-----
A--3-----3-----3-3-----3-----3---7-5---5-7-----5-7---5-7-------
E----5-3---3-5-----5-3---3-5-----------------------------------

G--------------------------------------------------------------
D--3-----3-----3-3-----3-----3-5-----5-----5-5-----5-7---------
A----5-3---3-5-----5-3---3-5-----7-5---5-7-----7-5-------------
E--------------------------------------------------------------
Comments