Four Tops - Cant Help Myself Chords & Tabs

 

Four Tops Chords & Tabs

Version: 1 Type: Bass Tab 0 ratings
1 star 2 stars 3 stars 4 stars 5 stars
comments

Cant Help Myself Bass Tab

   
Four Tops - Cant Help Myself
Email - Salvatruch06@aol.com
(E A D G)  Standard Tuning

Intro:
G|-----------------|-----------------|-----------------|-----------------|
D|-----------------|-----------------|-----------------|-----------------|
A|-3---0-3-----0-3-|-3---0-3-----0-3-|-3---0-3-----0-3-|-3---0-3-----0-3-|
E|---3-------3-----|---3-------3-----|---3-------3-----|---3-------3-----|

G|-----------------|-----------------|
D|-----------------|-----------------|
A|-3---0-3-----0-3-|-3---0-3-----0-3-|
E|---3-------3-----|---3-------3-----|
[ Tab from: http://www.guitartabs.cc/tabs/f/four_tops/cant_help_myself_btab.html ]
Verse/Sax Solo/Interlude 
G|------------------|-----------------|-----------------|-----------------|
D|o-----------------|-----------------|-5---3-5-----3-5-|-5---3-5-----3-5-|
A|o-3---0-3-----0-3-|-3---0-3-----0-3-|---5-------5-----|---5-------5-----|
E|----3-------3-----|---3-------3-----|-----------------|-----------------|

G|-----------------|-----------------|-----------------|------------------|
D|-----------------|-----------------|-3-----3-------3-|-5-5-5h7---------o|
A|-5---3-5-----3-5-|-5---3-5-----3-5-|---3-5-----3-5---|-----------------o|
E|---5-------5-----|---5-------5-----|-----------------|------------------|
Comments