Four Tet - As Serious As Your Life Chords & Tabs

 

As Serious As Your Life Chords & Tabs

Four Tet Chords & Tabs

Version: 1 Type: Tab

As Serious As Your Life Tab

Artist: Four Tet
Song: As Serious As Your Life

e|-------------------------------------------------------|
B|-------------------------------------------------------|
G|-------------------------------------------------------|
D|-------------------------------------------------------|
A|---9h10h11--13--11-------------------------------------|
E|-------------------13-12----9~~---8~~---6~~------------|
[ Tab from: http://www.guitartabs.cc/tabs/f/four_tet/as_serious_as_your_life_tab.html ]
e|-------------------------------------------------------|
B|-------------------------------------------------------|
G|-------------------------------------------------------|
D|-------------------------------------------------------|
A|---9h10h11--13--11-------------------------------------|
E|-------------------13-12----9~~---8~~---6~~------------|

e|-------------------------------------------------------|
B|-------------------------------------------------------|
G|-------------------------------------------------------|
D|-------------------------------------------------------|
A|---9h10h11--13--11-------------------------------------|
E|-------------------13-12----9~~---8~~---6~~------------|