Four Star Mary - Shadows Chords & Tabs

 

Shadows Chords & Tabs

Four Star Mary Chords & Tabs

Version: 1 Type: Tab

Shadows Tab

   
                                     SHADOWS
                          As recorded by Four Star Mary

Hey Guys, i figured this from the chords, it's just hammering on a few notes but it
sounds much better. I'm workin on the whole song. Happy New Year (3/1/06)

Transcribed by Sam Osborn
[ Tab from: http://www.guitartabs.cc/tabs/f/four_star_mary/shadows_tab.html ]
  B                        E
  Gtr I
|-7---7---9---9-9-9-9-7--|-12---12---14---|-14-14-14-12-12----|
|-7---7---7---7-7-7-7-7--|-12---12---12---|-12-12-12-12-12----|
|-8---8---8---8-8-8-8-8--|-13---13---13---|-13-13-13-13-13----|
|-9---9---9---9-9-9-9-9--|-14---14---14---|-14-14-14-14-14----|
|-9---9---9---9-9-9-9-9--|-14---14---14---|-14-14-14-14-14----|
|-7---7---7---7-7-7-7-7--|-12---12---12---|-12-12-12-12-12----|

There's the intro, the other guitar parts in the 2nd part of the intro go something like this:

||---7---2---7-----9-9-9-9-7-----12-11-------------||
||-o-------------------------------------12-------o||
||-------------------------------------------------||
||-------------------------------------------------||
||-o----------------------------------------------o||
||-------------------------------------------------||