Four Stairs And A Lamp Post - Problem Chords & Tabs

 

Problem Chords & Tabs

Four Stairs And A Lamp Post Chords & Tabs

Version: 2 Type: Tab 0 ratings
1 star 2 stars 3 stars 4 stars 5 stars
comments

Problem Tab

Intro:

e------------------------------------------------------------|
B------------------------------------------------------------|
G---------------11------------13------------11---------------|
D--11-----------11------------13------------11-----------11--|
A--11-----------9--TIMES-8----11--TIMES-8---9--TIMES 8---11--|
G--9- TIMES-8--------------------------------------------9---| TIMES 2

Verse:

e---------------------------------------------------------------|
B---------------------------------------------------------------|
G-------------------11--11-x-x--11--13--13--x-x--13--11---------|
D--11--11--x-x--11--11--11-x-x--11--13--13--x-x--13--11---------|
A--11--11--x-x--11--9---9--x-x--9---11--11--x-x--11--9----------|
E--9---9---x-x--9---------------------------------------Times 4-|

Interlude:

e------------------------------------------------------|
B------------------------------------------------------|
G----------------8--8--x-x--8----------------8---------|
D--8--8--x-x--8--8--8--x-x--8--8--8--x-x--8--8---------|
A--8--8--x-x--8--6--6--x-x--6--8--8--x-x--8--6---------|
E--6--6--x-x--6----------------6--6--x-x--6------------|

Chorus:
[ Tab from: http://www.guitartabs.cc/tabs/f/four_stairs_and_a_lamp_post/problem_tab_ver_2.html ]
e------------------------------------------------------------|
B------------------------------------------------------------|
G---------------11------------13------------11---------------|
D--11-----------11------------13------------11---------------|
A--11-----------9--TIMES-6----11--TIMES-6---9--TIMES-6-------|
E--9- TIMES-6------------------------------------------------|TIMES 4

Solo:

e-----------------------------------------------------------------|
B-----------------------------------------------------------------|
G-----------------------------------------------------------------|
D--9----9---9----9-----7--7--7--7---9--9--9--9---11--11--11--11---|
A----11--11---11---11---9--9--9--9---11-11-11-11---13--13--13--13-|
E-----------------------------------------------------------------|

e--------------------------------------------------------------|
B--------------------------------------------------------------|
G--------------------------------------------------------------|
D--7--7--7--7---5--5--5--5-----9---9---9---9-------------------|
A---9--9--9--9---7--7--7--7-----11--11--11--11-----------------|
E--------------------------------------------------------------|


Intro
Verse 1
Interlude
Chorus
Verse 2
Solo
Verse 1
Interlude
Chorus
Outro
Comments