Four Square - Life Forgotten Chords & Tabs

 

Life Forgotten Chords & Tabs

Four Square Chords & Tabs

Version: 1 Type: Tab 0 ratings
1 star 2 stars 3 stars 4 stars 5 stars
comments

Life Forgotten Tab

   
Four Square
  life forgotten
-----------------

Verse and Chorus:
E|-----------------------------------------------
B|-----------------------------------------------
G|-----------------------------------------------
D|-3-3-3-3-3-3-3-3-3-3-3-3-7-7-7-7-7-3-3-3-3-3-3-
A|-3-3-3-3-3-3-1-1-1-1-1-1-5-5-5-5-5-1-1-1-1-1-1-
E|-1-1-1-1-1-1-----------------------------------
[ Tab from: http://www.guitartabs.cc/tabs/f/four_square/life_forgotten_tab.html ]
pre-chorus: still the world keeps turning...
E|-------------------------------------
B|-------------------------------------
G|-------------------------------------
D|-5-5-5-5-5-3-3-3-3-3-5-5-5-5-5-3-3-3-
A|-3-3-3-3-3-1-1-1-1-1-3-3-3-3-3-1-1-1-
E|-------------------------------------

the bridge has no other chords included than these above...

if someone has the lyrics of this song and the rest of the
cd (three chords...one capo), you can mail it to:
xbentonxfallsx@hotmail.com
Comments