Fountains Of Wayne - Stacys Mom Chords & Tabs

 

Stacys Mom Chords & Tabs

Fountains Of Wayne Chords & Tabs

Version: 3 Type: Tab 0 ratings
1 star 2 stars 3 stars 4 stars 5 stars
comments

Stacys Mom Tab

Intro 6x
E---------------------------------------
B------------------3-4-----------4------
G--------2-2-2--4--3-4--2-2-2-2--4------
D-2-2-2--2-2-2--4--1-2--2-2-2-2--2------ 
A-2-2-2--0-0-0--2-------0-0-0-0---------
E-0-0-0---------------------------------
  . . .  . . .  .  . .  . . . .

Verse 8x
E--------------------------------------
B------------------3-4-----------------
G--------2-2-2--4--3-4--2-2-2-2--------
D-2-2-2--2-2-2--4--1-2--2-2-2-2-------- 
A-2-2-2--0-0-0--2-------0-0-0-0---------
E-0-0-0--------------------------------
  . . .  . . .  .  . .  . . . .

PRE-CHORUS 2x
E---------------------------------------
B---------------------------------------
G-6-6-6-6-6-6-6-6-----------------------
D-6-6-6-6-6-6-6-6-7-7-7-7-7-7-7-7-------
A-4-4-4-4-4-4-4-4-7-7-7-7-7-7-7-7-------
E-----------------5-5-5-5-5-5-5-5-------

CHORUS 2x
E---------------------------------------
B----------4-4-4-4----------------------
G-2-2-2-2--4-4-4-4--4-4-4-4--6-6-6-6----
D-2-2-2-2--2-2-2-2--4-4-4-4--6-6-6-6----
A-0-0-0-0-----------2-2-2-2--4-4-4-4----
E---------------------------------------

E---------------------------------------
B----------4-4-4-4--6-6-6-6--6-6-6-6---
G-2-2-2-2--4-4-4-4--6-6-6-6--6-6-6-6---
D-2-2-2-2--2-2-2-2--3-3-3-3--4-4-4-4---
A-0-0-0-0-------------------------------
E---------------------------------------

E----------------------------
B----------------------------
G-2-2-2-2--4-4-4-4-4-4-------
D-2-2-2-2--4-4-4-4-4-4-------
A-0-0-0-0--2-2-2-2-2-2-------
E----------------------------

Solo
E----------------------------------------------------------------------
B--1--3--5--3--------------------------1--3--5--3----------------------
G--------------4--0--2--2--0--4--2--0-------------4--0--4h5p4h5p4h5----
D----------------------------------------------------------------------
A----------------------------------------------------------------------
E----------------------------------------------------------------------
[ Tab from: http://www.guitartabs.cc/tabs/f/fountains_of_wayne/stacys_mom_tab_ver_3.html ]
E--------------------------------------------------------------------------------
B--1--3--5--3--------------------------1--3--5--3-------------------4h5p4h5p4h5--
G--------------4--0--2--2--0--4--2--0-------------4--0--4h5p4h5p4h5--------------
D--------------------------------------------------------------------------------
A--------------------------------------------------------------------------------
E--------------------------------------------------------------------------------

2nd CHORUS 3x (higher than the first chorus at the end of the song)
E-------------------------------------------
B------------7-7-7-7------------------------
G--5-5-5-5---7-7-7-7--7-7-7-7---9-9-9-9-----
D--5-5-5-5---5-5-5-5--7-7-7-7---9-9-9-9-----
A--3-3-3-3------------5-5-5-5---7-7-7-7-----
E-------------------------------------------

E-------------------------------------------
B------------7-7-7-7------------------------
G--5-5-5-5---7-7-7-7---9-9-9-9---9-9-9-9-----
D--5-5-5-5---5-5-5-5---9-9-9-9---9-9-9-9-----
A--3-3-3-3-------------6-6-6-6---7-7-7-7-----
E-------------------------------------------

OUTRO
E-------------------------------------------
B-------------------------------------------
G--5-5-5-5-5-5-5-5--7-7-7-7-7-7-7-7---------
D--5-5-5-5-5-5-5-5--7-7-7-7-7-7-7-7---------
A--3-3-3-3-3-3-3-3--5-5-5-5-5-5-5-5---------
E-------------------------------------------

E-------------------------------------------
B------------7-7-7-7------------------------
G--5-5-5-5---7-7-7-7--7-7-7-7---9-9-9-9-----
D--5-5-5-5---5-5-5-5--7-7-7-7---9-9-9-9-----
A--3-3-3-3------------5-5-5-5---7-7-7-7-----
E-------------------------------------------

E-------------------------------------------
B------------7-7-7-7------------------------
G--5-5-5-5---7-7-7-7---9-9-9-9---9-9-9-9-----
D--5-5-5-5---5-5-5-5---9-9-9-9---9-9-9-9-----
A--3-3-3-3-------------6-6-6-6---7-7-7-7-----
E-------------------------------------------

END
E--------------
B------------7-
G--5-5-5-5---7-
D--5-5-5-5---5-
A--3-3-3-3-----
E--------------

man i think this is right but not sure so if its wrong thats ok ya know.....
tabbed by kelsey :D
Comments