Fountains Of Wayne - Stacys Mom Chords & Tabs

 

Stacys Mom Chords & Tabs

Fountains Of Wayne Chords & Tabs

Version: 1 Type: Tab 11 ratings
1 star 2 stars 3 stars 4 stars 5 stars
comments

Stacys Mom Tab

   
#----------------------------------PLEASE NOTE--------------------------------#
#This file is the author's own work and represents their interpretation of the#
#song. You may only use this file for private study, scholarship, or research.#
#-----------------------------------------------------------------------------#

Author/Artist: Fountains of Wayne
Title: Stacy's Mom
Album: Welcome Interstate Managers
Transcribed by: improviduto (Trevor)
Email: theycallmetheglove@hotmail.com


**I only tab for Guitar Tab Universe!**


Tuning: Standard (EADGBe)

Notes: Fun tune! Should be pretty accurate. 


[Intro]

|repeat 6 times|

   (Guitar 1)
    P.M.............................................
e-|-------------------------|-------------------------|
B-|-------------------------|-------------------------|
G-|-------------------------|-------------------------|
D-|-------------------------|-------------------------|
A-|-------------------------|----6--7-----------------|
E-|-0--0--0--5--5--5--5--5--|-7--------5--5--5--5--5--|
  | 1  +  2  +  3  +  4  +    1  +  2  +  3  +  4  +  | 
  |                                                   |
  |(Guitar 2)                                         |
  |                                                E  |
e-|-------------------------|-------------------------|
B-|-------------------------|----------------------9--|
G-|-------------------------|----------------------9--|
D-|-------------------------|----------------------9--|
A-|-------------------------|----------------------7--|
E-|-------------------------|-------------------------|
    1  +  2  +  3  +  4  +    1  +  2  +  3  +  4  +



[Verse 0:24]
   
   (Guitar 1)
     
    E5       A5               B5          A5            E5       A5               B5          A5
    P.M.................................................................................................
e-|-------------------------|-------------------------|-------------------------|-------------------------|
B-|-------------------------|-------------------------|-------------------------|-------------------------|
G-|-------------------------|-------------------------|-------------------------|-------------------------|
D-|-------------------------|-------------------------|-------------------------|-------------------------|
A-|-7--7--7--7--7--7--7--7--|-9--9--9--9--7--7--7--7--|-7--7--7--7--7--7--7--7--|-9--9--9--9--7--7--7--7--|
E-|-0--0--0--5--5--5--5--5--|-7--7--7--5--5--5--5--5--|-0--0--0--5--5--5--5--5--|-7--7--7--5--5--5--5--5--|
  | 1  +  2  +  3  +  4  +    1  +  2  +  3  +  4  +    1  +  2  +  3  +  4  +    1  +  2  +  3  +  4  +  |  
  |                                                                                                       | 
  |(Guitar 2)                                                                                             |  
  |                                                                                                    E  |
e-|-------------------------|-------------------------|-------------------------|-------------------------|
B-|-------------------------|-------------------------|-------------------------|----------------------9--|
G-|-------------------------|-------------------------|-------------------------|----------------------9--|
D-|-------------------------|-------------------------|-------------------------|----------------------9--|
A-|-------------------------|-------------------------|-------------------------|----------------------7--|
E-|-------------------------|-------------------------|-------------------------|-------------------------|
    1  +  2  +  3  +  4  +    1  +  2  +  3  +  4  +    1  +  2  +  3  +  4  +    1  +  2  +  3  +  4  +  
 

    E5       A5               B5          A5            E5       A5               B5          A5 
    P.M.................................................................................................
e-|-------------------------|-------------------------|-------------------------|-------------------------|
B-|-------------------------|-------------------------|-------------------------|-------------------------|
G-|-------------------------|-------------------------|-------------------------|-------------------------|
D-|-------------------------|-------------------------|-------------------------|-------------------------|
A-|-7--7--7--7--7--7--7--7--|-9--9--9--9--7--7--7--7--|-7--7--7--7--7--7--7--7--|-9--9--9--9--7--7--7--7--|
E-|-0--0--0--5--5--5--5--5--|-7--7--7--5--5--5--5--5--|-0--0--0--5--5--5--5--5--|-7--7--7--5--5--5--5--5--|
  | 1  +  2  +  3  +  4  +    1  +  2  +  3  +  4  +    1  +  2  +  3  +  4  +    1  +  2  +  3  +  4  +  |  
  |                                                                                                       | 
  |                                                                                             |  
  |                                                                                                    E  |
e-|-------------------------|-------------------------|-------------------------|-------------------------|
B-|-------------------------|-------------------------|-------------------------|----------------------9--|
G-|-------------------------|-------------------------|-------------------------|----------------------9--|
D-|-------------------------|-------------------------|-------------------------|----------------------9--|
A-|-------------------------|-------------------------|-------------------------|----------------------7--|
E-|-------------------------|-------------------------|-------------------------|-------------------------|
    1  +  2  +  3  +  4  +    1  +  2  +  3  +  4  +    1  +  2  +  3  +  4  +    1  +  2  +  3  +  4  +  


    E5       A5               B5          A5            E5       A5               B5          A5
    P.M.................................................................................................
e-|-------------------------|-------------------------|-------------------------|-------------------------|
B-|-------------------------|-------------------------|-------------------------|-------------------------|
G-|-------------------------|-------------------------|-------------------------|-------------------------|
D-|-------------------------|-------------------------|-------------------------|-------------------------|
A-|-7--7--7--7--7--7--7--7--|-9--9--9--9--7--7--7--7--|-7--7--7--7--7--7--7--7--|-9--9--9--9--7--7--7--7--|
E-|-0--0--0--5--5--5--5--5--|-7--7--7--5--5--5--5--5--|-0--0--0--5--5--5--5--5--|-7--7--7--5--5--5--5--5--|
  | 1  +  2  +  3  +  4  +    1  +  2  +  3  +  4  +    1  +  2  +  3  +  4  +    1  +  2  +  3  +  4  +  |  
  |                                                                                                       | 
  |                                                                                                       |
  |                                                                                                    E  |
e-|-------------------------|-------------------------|-------------------------|-------------------------|
B-|-------------------------|-------------------------|-------------------------|----------------------9--|
G-|-------------------------|-------------------------|-------------------------|----------------------9--|
D-|-------------------------|-------------------------|-------------------------|----------------------9--|
A-|-------------------------|-------------------------|-------------------------|----------------------7--|
E-|-------------------------|-------------------------|-------------------------|-------------------------|
    1  +  2  +  3  +  4  +    1  +  2  +  3  +  4  +    1  +  2  +  3  +  4  +    1  +  2  +  3  +  4  +  


    E5       A5               B5          A5            E5       A5               B5          A5
    P.M.................................................................................................
e-|-------------------------|-------------------------|-------------------------|-------------------------|
B-|-------------------------|-------------------------|-------------------------|-------------------------|
G-|-------------------------|-------------------------|-------------------------|-------------------------|
D-|-------------------------|-------------------------|-------------------------|-------------------------|
A-|-7--7--7--7--7--7--7--7--|-9--9--9--9--7--7--7--7--|-7--7--7--7--7--7--7--7--|-9--9--9--9--7--7--7--7--|
E-|-0--0--0--5--5--5--5--5--|-7--7--7--5--5--5--5--5--|-0--0--0--5--5--5--5--5--|-7--7--7--5--5--5--5--5--|
  | 1  +  2  +  3  +  4  +    1  +  2  +  3  +  4  +    1  +  2  +  3  +  4  +    1  +  2  +  3  +  4  +  |  
  |                                                                                                       | 
  |                                                                                                       |  
  |                                                                                                       |
e-|-------------------------|-------------------------|-------------------------|-------------------------|
B-|-------------------------|-------------------------|-------------------------|-------------------------|
G-|-------------------------|-------------------------|-------------------------|-------------------------|
D-|-------------------------|-------------------------|-------------------------|-------------------------|
A-|-------------------------|-------------------------|-------------------------|-------------------------|
E-|-------------------------|-------------------------|-------------------------|-------------------------|
    1  +  2  +  3  +  4  +    1  +  2  +  3  +  4  +    1  +  2  +  3  +  4  +    1  +  2  +  3  +  4  +   



[Pre-Chours 0:58]

    Ab5                       A5                        Ab5                       A
e-|-------------------------|-------------------------|-------------------------|-------------------------|
B-|-------------------------|-------------------------|-------------------------|-------------------------|
G-|-------------------------|-------------------------|-------------------------|-------------------------|
D-|-6--6--6--6--6--6--6--6--|-7--7--7--7--7--7--7--7--|-6--6--6--6--6--6--6--6--|-7--7--7--7--7-----------|
A-|-6--6--6--6--6--6--6--6--|-7--7--7--7--7--7--7--7--|-6--6--6--6--6--6--6--6--|-7--7--7--7--7-----------|
E-|-4--4--4--4--4--4--4--4--|-5--5--5--5--5--5--5--5--|-4--4--4--4--4--4--4--4--|-5--5--5--5--5-----------|
    1  +  2  +  3  +  4  +    1  +  2  +  3  +  4  +    1  +  2  +  3  +  4  +    1  +  2  +  3  +  4  +



[Chourus 1:04]
 
    A5       E5               B5             C#5        A5                        B5                   E5
e-|-------------------------|-------------------------|-------------------------|-------------------------|
B-|-------------------------|-------------------------|-------------------------|-------------------------|
G-|-2--2--2-----------------|-4-----4--4--4--6-----6--|-2--2--2--2-----2--2-----|-4-----4--4--4--6-----6--|
D-|-2--2--2--2-----2--2-----|-4-----4--4--4--6-----6--|-2--2--2--2-----2--2-----|-4-----4--4--4--6-----6--|
A-|-0--0--0--2-----2--2-----|-2-----2--2--2--4-----4--|-0--0--0--2-----2--2-----|-2-----2--2--2--4-----4--|
E-|----------0-----0--0-----|-------------------------|----------0-----0--0-----|-------------------------|
    1  +  2  +  3  +  4  +    1  +  2  +  3  +  4  +    1  +  2  +  3  +  4  +    1  +  2  +  3  +  4  +


    A5       E5               C5             C#5        A5                        B5                   E5
e-|-------------------------|-------------------------|-------------------------|-------------------------|
B-|-------------------------|-------------------------|-------------------------|-------------------------|
G-|-2--2--2-----------------|-5-----5--5--5--6-----6--|-2--2--2--2--2--2--2--2--|-4--4--4--4--4--4--4--9--|
D-|-2--2--2--2-----2--2-----|-5-----5--5--5--6-----6--|-2--2--2--2--2--2--2--2--|-4--4--4--4--4--4--4--9--|
A-|-0--0--0--2-----2--2-----|-3-----3--3--3--4-----4--|-0--0--0--0--0--0--0--0--|-2--2--2--2--2--2--2--7--|
E-|----------0-----0--0-----|-------------------------|-------------------------|-------------------------|
    1  +  2  +  3  +  4  +    1  +  2  +  3  +  4  +    1  +  2  +  3  +  4  +    1  +  2  +  3  +  4  +



[Pre-Verse 1:22]

   (Guitar 1)
    P.M.................................................................................................
e-|-------------------------|-------------------------|-------------------------|-------------------------|
B-|-------------------------|-------------------------|-------------------------|-------------------------|
G-|-------------------------|-------------------------|-------------------------|-------------------------|
D-|-------------------------|-------------------------|-------------------------|-------------------------|
A-|-------------------------|----6--7-----------------|-------------------------|----6--7-----------------|
E-|-0--0--0--5--5--5--5--5--|-7--------5--5--5--5--5--|-0--0--0--5--5--5--5--5--|-7--------5--5--5--5--5--|
  | 1  +  2  +  3  +  4  +    1  +  2  +  3  +  4  +    1  +  2  +  3  +  4  +    1  +  2  +  3  +  4  +  |
  |                                                                                                       |
  |(Guitar 2)                                                                                             | 
  |                                                E                                                      |
e-|-------------------------|-------------------------|-------------------------|-------------------------|
B-|-------------------------|----------------------9--|-------------------------|-------------------------|
G-|-------------------------|----------------------9--|-------------------------|-------------------------|
D-|-------------------------|----------------------9--|-------------------------|-------------------------|
A-|-------------------------|----------------------7--|-------------------------|-------------------------|
E-|-------------------------|-------------------------|-------------------------|-------------------------|
    1  +  2  +  3  +  4  +    1  +  2  +  3  +  4  +    1  +  2  +  3  +  4  +    1  +  2  +  3  +  4  +



[Verse 1:30]
 
   (Guitar 1)
    E5       A5               B5          A5            E5       A5               B5          A5
    P.M.................................................................................................
e-|-------------------------|-------------------------|-------------------------|-------------------------|
B-|-------------------------|-------------------------|-------------------------|-------------------------|
G-|-------------------------|-------------------------|-------------------------|-------------------------|
D-|-------------------------|-------------------------|-------------------------|-------------------------|
A-|-7--7--7--7--7--7--7--7--|-9--9--9--9--7--7--7--7--|-7--7--7--7--7--7--7--7--|-9--9--9--9--7--7--7--7--|
E-|-0--0--0--5--5--5--5--5--|-7--7--7--5--5--5--5--5--|-0--0--0--5--5--5--5--5--|-7--7--7--5--5--5--5--5--|
  | 1  +  2  +  3  +  4  +    1  +  2  +  3  +  4  +    1  +  2  +  3  +  4  +    1  +  2  +  3  +  4  +  |  
  |                                                                                                       | 
  |(Guitar 2)                                                                                             |
  |                                                                                                    E  |
e-|-------------------------|-------------------------|-------------------------|-------------------------|
B-|-------------------------|-------------------------|-------------------------|----------------------9--|
G-|-------------------------|-------------------------|-------------------------|----------------------9--|
D-|-------------------------|-------------------------|-------------------------|----------------------9--|
A-|-------------------------|-------------------------|-------------------------|----------------------7--|
E-|-------------------------|-------------------------|-------------------------|-------------------------|
  | 1  +  2  +  3  +  4  +    1  +  2  +  3  +  4  +    1  +  2  +  3  +  4  +    1  +  2  +  3  +  4  +  |
  |                                                                                                       | 
  |(Guitar 3)                                                                                             |
  |                                                                                                       |
e-|-------0-----------0-----|-------0-----------0-----|-------0-----------0-----|-------0-----------0-----|
B-|----------0-----------0--|----------0-----------0--|----------0-----------0--|----------0-----------0--|
G-|----1-----------5--------|----7-----------5--------|----1-----------5--------|----7-----------5--------|
D-|-2-----------7-----------|-9-----------7-----------|-2-----------7-----------|-9-----------7-----------|
A-|-------------------------|-------------------------|-------------------------|-------------------------|
E-|-------------------------|-------------------------|-------------------------|-------------------------|
    1  +  2  +  3  +  4  +    1  +  2  +  3  +  4  +    1  +  2  +  3  +  4  +    1  +  2  +  3  +  4  +

[ Tab from: http://www.guitartabs.cc/tabs/f/fountains_of_wayne/stacys_mom_tab.html ]
    E5       A5               B5          A5            E5       A5               B5          A5
    P.M.................................................................................................
e-|-------------------------|-------------------------|-------------------------|-------------------------|
B-|-------------------------|-------------------------|-------------------------|-------------------------|
G-|-------------------------|-------------------------|-------------------------|-------------------------|
D-|-------------------------|-------------------------|-------------------------|-------------------------|
A-|-7--7--7--7--7--7--7--7--|-9--9--9--9--7--7--7--7--|-7--7--7--7--7--7--7--7--|-9--9--9--9--7--7--7--7--|
E-|-0--0--0--5--5--5--5--5--|-7--7--7--5--5--5--5--5--|-0--0--0--5--5--5--5--5--|-7--7--7--5--5--5--5--5--|
  | 1  +  2  +  3  +  4  +    1  +  2  +  3  +  4  +    1  +  2  +  3  +  4  +    1  +  2  +  3  +  4  +  |  
  |                                                                                                       | 
  |                                                                                                       |
  |                                                                                                       |
e-|-------------------------|-------------------------|-------------------------|-------------------------|
B-|-------------------------|-------------------------|-------------------------|-------------------------|
G-|-------------------------|-------------------------|-------------------------|-------------------------|
D-|-------------------------|-------------------------|-------------------------|-------------------------|
A-|-------------------------|-------------------------|-------------------------|-------------------------|
E-|-------------------------|-------------------------|-------------------------|-------------------------|
  | 1  +  2  +  3  +  4  +    1  +  2  +  3  +  4  +    1  +  2  +  3  +  4  +    1  +  2  +  3  +  4  +  |
  |                                                                                                       | 
  |                                                                                                       |
  |                                                                                                       |
e-|-------0-----------0-----|-------0-----------0-----|-------0-----------0-----|-------0-----------0-----|
B-|----------0-----------0--|----------0-----------0--|----------0-----------0--|----------0-----------0--|
G-|----1-----------5--------|----7-----------5--------|----1-----------5--------|----7-----------5--------|
D-|-2-----------7-----------|-9-----------7-----------|-2-----------7-----------|-9-----------7-----------|
A-|-------------------------|-------------------------|-------------------------|-------------------------|
E-|-------------------------|-------------------------|-------------------------|-------------------------|
    1  +  2  +  3  +  4  +    1  +  2  +  3  +  4  +    1  +  2  +  3  +  4  +    1  +  2  +  3  +  4  +


    E5       A5               B5          A5            E5       A5               B5          A5
    P.M.................................................................................................
e-|-------------------------|-------------------------|-------------------------|-------------------------|
B-|-------------------------|-------------------------|-------------------------|-------------------------|
G-|-------------------------|-------------------------|-------------------------|-------------------------|
D-|-------------------------|-------------------------|-------------------------|-------------------------|
A-|-7--7--7--7--7--7--7--7--|-9--9--9--9--7--7--7--7--|-7--7--7--7--7--7--7--7--|-9--9--9--9--7--7--7--7--|
E-|-0--0--0--5--5--5--5--5--|-7--7--7--5--5--5--5--5--|-0--0--0--5--5--5--5--5--|-7--7--7--5--5--5--5--5--|
  | 1  +  2  +  3  +  4  +    1  +  2  +  3  +  4  +    1  +  2  +  3  +  4  +    1  +  2  +  3  +  4  +  |  
  |                                                                                                       | 
  |                                                                                                       |
  |                                                                                                       |
e-|-------------------------|-------------------------|-------------------------|-------------------------|
B-|-------------------------|-------------------------|-------------------------|----------------------9--|
G-|-------------------------|-------------------------|-------------------------|----------------------9--|
D-|-------------------------|-------------------------|-------------------------|----------------------9--|
A-|-7--7--7--7--7--7--7--7--|-9--9--9--9--7--7--7--7--|-7--7--7--7--7--7--7--7--|-9--9--9--9--7--7--7--7--|
E-|-0--0--0--5--5--5--5--5--|-7--7--7--5--5--5--5--5--|-0--0--0--5--5--5--5--5--|-7--7--7--5--5--5--5-----|
  | 1  +  2  +  3  +  4  +    1  +  2  +  3  +  4  +    1  +  2  +  3  +  4  +    1  +  2  +  3  +  4  +  |
  |                                                                                                       | 
  |                                                                                                       |
  |                                                                                                       |
e-|-------0-----------0-----|-------0-----------0-----|-------0-----------0-----|-------0-----------0-----|
B-|----------0-----------0--|----------0-----------0--|----------0-----------0--|----------0-----------0--|
G-|----1-----------5--------|----7-----------5--------|----1-----------5--------|----7-----------5--------|
D-|-2-----------7-----------|-9-----------7-----------|-2-----------7-----------|-9-----------7-----------|
A-|-------------------------|-------------------------|-------------------------|-------------------------|
E-|-------------------------|-------------------------|-------------------------|-------------------------|
    1  +  2  +  3  +  4  +    1  +  2  +  3  +  4  +    1  +  2  +  3  +  4  +    1  +  2  +  3  +  4  +

  
    E5       A5               B5          A5            E5       A5               B5          A5
    P.M.................................................................................................
e-|-------------------------|-------------------------|-------------------------|-------------------------|
B-|-------------------------|-------------------------|-------------------------|-------------------------|
G-|-------------------------|-------------------------|-------------------------|-------------------------|
D-|-------------------------|-------------------------|-------------------------|-------------------------|
A-|-7--7--7--7--7--7--7--7--|-9--9--9--9--7--7--7--7--|-7--7--7--7--7--7--7--7--|-9--9--9--9--7--7--7--7--|
E-|-0--0--0--5--5--5--5--5--|-7--7--7--5--5--5--5--5--|-0--0--0--5--5--5--5--5--|-7--7--7--5--5--5--5--5--|
  | 1  +  2  +  3  +  4  +    1  +  2  +  3  +  4  +    1  +  2  +  3  +  4  +    1  +  2  +  3  +  4  +  |  
  |                                                                                                       | 
  |                                                                                                       |
  |                                                                                                       |
e-|-------------------------|-------------------------|-------------------------|-------------------------|
B-|-------------------------|-------------------------|-------------------------|-------------------------|
G-|-------------------------|-------------------------|-------------------------|-------------------------|
D-|-------------------------|-------------------------|-------------------------|-------------------------|
A-|-7--7--7--7--7--7--7--7--|-9--9--9--9--7--7--7--7--|-7--7--7--7--7--7--7--7--|-9--9--9--9--7--7--7-----|
E-|-0--0--0--5--5--5--5--5--|-7--7--7--5--5--5--5--5--|-0--0--0--5--5--5--5--5--|-7--7--7--5--5--5--5-----|
  | 1  +  2  +  3  +  4  +    1  +  2  +  3  +  4  +    1  +  2  +  3  +  4  +    1  +  2  +  3  +  4  +  |
  |                                                                                                       | 
  |                                                                                                       |
  |                                                                                                       |
e-|-------0-----------0-----|-------0-----------0-----|-------0-----------0-----|-------0-----------0-----|
B-|----------0-----------0--|----------0-----------0--|----------0-----------0--|----------0-----------0--|
G-|----1-----------5--------|----7-----------5--------|----1-----------5--------|----7-----------5--------|
D-|-2-----------7-----------|-9-----------7-----------|-2-----------7-----------|-9-----------7-----------|
A-|-------------------------|-------------------------|-------------------------|-------------------------|
E-|-------------------------|-------------------------|-------------------------|-------------------------|
    1  +  2  +  3  +  4  +    1  +  2  +  3  +  4  +    1  +  2  +  3  +  4  +    1  +  2  +  3  +  4  +



[Pre-Chours 2:02]

    Ab5                       A5                        Ab5                       A
e-|-------------------------|-------------------------|-------------------------|-------------------------|
B-|-------------------------|-------------------------|-------------------------|-------------------------|
G-|-------------------------|-------------------------|-------------------------|-------------------------|
D-|-6--6--6--6--6--6--6--6--|-7--7--7--7--7--7--7--7--|-6--6--6--6--6--6--6--6--|-7--7--7--7--7-----------|
A-|-6--6--6--6--6--6--6--6--|-7--7--7--7--7--7--7--7--|-6--6--6--6--6--6--6--6--|-7--7--7--7--7-----------|
E-|-4--4--4--4--4--4--4--4--|-5--5--5--5--5--5--5--5--|-4--4--4--4--4--4--4--4--|-5--5--5--5--5-----------|
    1  +  2  +  3  +  4  +    1  +  2  +  3  +  4  +    1  +  2  +  3  +  4  +    1  +  2  +  3  +  4  +



[Chourus 2:10]

    A5       E5               B5             C#5        A5                        B5                   E5
e-|-------------------------|-------------------------|-------------------------|-------------------------|
B-|-------------------------|-------------------------|-------------------------|-------------------------|
G-|-2--2--2-----------------|-4-----4--4--4--6-----6--|-2--2--2-----------------|-4-----4--4--4--6-----6--|
D-|-2--2--2--2-----2--2-----|-4-----4--4--4--6-----6--|-2--2--2--2-----2--2-----|-4-----4--4--4--6-----6--|
A-|-0--0--0--2-----2--2-----|-2-----2--2--2--4-----4--|-0--0--0--2-----2--2-----|-2-----2--2--2--4-----4--|
E-|----------0-----0--0-----|-------------------------|----------0-----0--0-----|-------------------------|
    1  +  2  +  3  +  4  +    1  +  2  +  3  +  4  +    1  +  2  +  3  +  4  +    1  +  2  +  3  +  4  +


    A5       E5               C5             C#5        A5                        B5                   E5
e-|-------------------------|-------------------------|-------------------------|-------------------------|
B-|-------------------------|-------------------------|-------------------------|-------------------------|
G-|-2--2--2-----------------|-5-----5--5--5--6-----6--|-2--2--2--2--2--2--2--2--|-4--4--4--4--4--4--4--9--|
D-|-2--2--2--2-----2--2-----|-5-----5--5--5--6-----6--|-2--2--2--2--2--2--2--2--|-4--4--4--4--4--4--4--9--|
A-|-0--0--0--2-----2--2-----|-3-----3--3--3--4-----4--|-0--0--0--0--0--0--0--0--|-2--2--2--2--2--2--2--7--|
E-|----------0-----0--0-----|-------------------------|-------------------------|-------------------------|
    1  +  2  +  3  +  4  +    1  +  2  +  3  +  4  +    1  +  2  +  3  +  4  +    1  +  2  +  3  +  4  +



[Bridge 2:26]

   (Guitar 1)

e-|-------------------------|
B-|-------------------------|
G-|-5h7-7/9-7-4-------------|
D-|-------------5-7-7759-75-|
A-|-------------------------|
E-|-------------------------|
  |(timing not accurate) 
  |                                                                                                       
  |(Guitar 2)                                                                                               
  |                                                                                                       
e-|-------------------------|-------------------------|
B-|-------------------------|-------------------------|
G-|-5--5--5-----------------|-7-----7--7--7--9-----9--|
D-|-5--5--5--5-----5--5-----|-7-----7--7--7--9-----9--|
A-|-3--3--3--5-----5--5-----|-5-----5--5--5--7-----7--|
E-|----------3-----3--3-----|-------------------------|
    1  +  2  +  3  +  4  +    1  +  2  +  3  +  4  +    


e-|-------------------------|
B-|-------------------------|
G-|-5h7-7/9-7-4---4-545454--|
D-|-------------5-----------|
A-|-------------------------|
E-|-------------------------|
  |(timing not accurate)
  |
  |
e-|-------------------------|-------------------------|
B-|-------------------------|-------------------------|
G-|-5--5--5-----------------|-8-----8--8--8--9-----9--|
G-|-5--5--5-----------------|-8-----8--6--8--9-----9--|
A-|-3--3--3--5-----5--5-----|-6-----6--6--6--7-----7--|
E-|----------3-----3--3-----|-------------------------|
    1  +  2  +  3  +  4  +    1  +  2  +  3  +  4  +  


e-|-------------------------|
B-|-------------------------|
G-|-5h7-7/9-7-4-------------|
D-|-------------5-7-7759-75-|
A-|-------------------------|
E-|-------------------------|
  |(timing not accurate)
  |
  |
e-|-------------------------|-------------------------|
B-|-------------------------|-------------------------|
G-|-5--5--5-----------------|-7-----7--7--7--9-----9--|
G-|-5--5--5-----------------|-7-----7--7--7--9-----9--|
A-|-3--3--3--5-----5--5-----|-5-----5--5--5--7-----7--|
E-|----------3-----3--3-----|-------------------------|
    1  +  2  +  3  +  4  +    1  +  2  +  3  +  4  +  


e-|-------------------------|
B-|-5b6r5b6r5----7b8r7b8r7--|
G-|-5b6r5b6r5----7b8r7b8r7--|
D-|-------------------------|
A-|-------------------------|
E-|-------------------------|
  |(timing not accurate)                                                                                  
  |                                                                                                       
  |(Guitar 2)                                                                                              
  |                                                                                                       
e-|-------------------------|-------------------------|
B-|-------------------------|-------------------------|
G-|-5--5--5--5--5--5--5--5--|-7--7--7--7--7--7--7--7--|
D-|-5--5--5--5--5--5--5--5--|-7--7--7--7--7--7--7--7--|
A-|-3--3--3--3--3--3--3--3--|-5--5--5--5--5--5--5--5--|
E-|-------------------------|-------------------------|
    1  +  2  +  3  +  4  +    1  +  2  +  3  +  4  + 



[Outro 2:42]

    C5       G5               D5             E5         C5       G5               D5             E5    
e-|-------------------------|-------------------------|-------------------------|-------------------------|
B-|-------------------------|-------------------------|-------------------------|-------------------------|
G-|-5--5--5-----------------|-7-----7--7--7--9-----9--|-5--5--5-----------------|-7-----7--7--7--9-----9--|
G-|-5--5--5-----------------|-7-----7--7--7--9-----9--|-5--5--5-----------------|-7-----7--7--7--9-----9--|
A-|-3--3--3--5-----5--5-----|-5-----5--5--5--7-----7--|-3--3--3--5-----5--5-----|-5-----5--5--5--7-----7--|
E-|----------3-----3--3-----|-------------------------|----------3-----3--3-----|-------------------------|
    1  +  2  +  3  +  4  +    1  +  2  +  3  +  4  +    1  +  2  +  3  +  4  +    1  +  2  +  3  +  4  + 

    C5       G5               Eb5            E5         C5                        D5                
e-|-------------------------|-------------------------|-------------------------|-------------------------|
B-|-------------------------|-------------------------|-------------------------|-------------------------|
G-|-5--5--5-----------------|-8-----8--8--8--9-----9--|-5--5--5--5--5--5--5--5--|-7--7--7--7--7--7--7--7--|
G-|-5--5--5-----------------|-8-----8--6--8--9-----9--|-5--5--5--5--5--5--5--5--|-7--7--7--7--7--7--7--7--|
A-|-3--3--3--5-----5--5-----|-6-----6--6--6--7-----7--|-3--3--3--3--3--3--3--3--|-5--5--5--5--5--5--5--5--|
E-|----------3-----3--3-----|-------------------------|-------------------------|-------------------------|
    1  +  2  +  3  +  4  +    1  +  2  +  3  +  4  +    1  +  2  +  3  +  4  +    1  +  2  +  3  +  4  + 

    C5       G5               D5             E5         C5       G5               D5             E5    
e-|-------------------------|-------------------------|-------------------------|-------------------------|
B-|-------------------------|-------------------------|-------------------------|-------------------------|
G-|-5--5--5-----------------|-7-----7--7--7--9-----9--|-5--5--5-----------------|-7-----7--7--7--9-----9--|
G-|-5--5--5-----------------|-7-----7--7--7--9-----9--|-5--5--5-----------------|-7-----7--7--7--9-----9--|
A-|-3--3--3--5-----5--5-----|-5-----5--5--5--7-----7--|-3--3--3--5-----5--5-----|-5-----5--5--5--7-----7--|
E-|----------3-----3--3-----|-------------------------|----------3-----3--3-----|-------------------------|
    1  +  2  +  3  +  4  +    1  +  2  +  3  +  4  +    1  +  2  +  3  +  4  +    1  +  2  +  3  +  4  + 


    C5       G5               Eb5            E5         C5                        D5                
e-|-------------------------|-------------------------|-------------------------|-------------------------||
B-|-------------------------|-------------------------|-------------------------|-------------------------||
G-|-5--5--5-----------------|-8-----8--8--8--9-----9--|-5--5--5--5--5--5--5--5--|-7--7--7--7--7--7--7--7--||
G-|-5--5--5-----------------|-8-----8--6--8--9-----9--|-5--5--5--5--5--5--5--5--|-7--7--7--7--7--7--7--7--||
A-|-3--3--3--5-----5--5-----|-6-----6--6--6--7-----7--|-3--3--3--3--3--3--3--3--|-5--5--5--5--5--5--5--5--||
E-|----------3-----3--3-----|-------------------------|-------------------------|-------------------------||
    1  +  2  +  3  +  4  +    1  +  2  +  3  +  4  +    1  +  2  +  3  +  4  +    1  +  2  +  3  +  4  + 


[END!]




   



   
Comments