Fountains Of Wayne - Stacys Mom Solo Chords & Tabs

 

Stacys Mom Solo Chords & Tabs

Fountains Of Wayne Chords & Tabs

Version: 1 Type: Tab 1 rating
1 star 2 stars 3 stars 4 stars 5 stars
comments

Stacys Mom Solo Tab

solo part of Stacy's Mom 
by: roberto t

i think its right... or close... idk i was just messin' around one day


played with med. level Dist.
Standard Tuning
SOLO
|-----------------------------------------------
|-----------------------------------------------
|-5h7-7s9-7-5-----------------------------------
|--------------5--7--7--7p5--9------7p5---------
|-----------------------------------------------
|-----------------------------------------------
[ Tab from: http://www.guitartabs.cc/tabs/f/fountains_of_wayne/stacys_mom_solo_tab.html ]
|-----------------------------------------------
|-----------------------------------------------
|-5h7-7s9-7-5----4-5-4-5-4-5-4-5----------------
|--------------5--------------------------------
|-----------------------------------------------
|-----------------------------------------------

|-----------------------------------------------
|-----------------------------------------------
|-5h7-7s9-7-5-----------------------------------
|--------------5--7--7--7p5--9------7p5---------
|-----------------------------------------------
|-----------------------------------------------

|------------------------------------------------
|-0-0-0-0-0-0-0-0-0-0-0-0-0-0-0-0----------------
|-4-5-4-5-4-5-4-5-8-9-8-9-8-9-8-9----------------
|------------------------------------------------
|------------------------------------------------
|------------------------------------------------

im pretty sure hes playin open B with it... it sounds good enough for like a 2 min tab haha
Comments