Fountains Of Wayne - Stacys Mom Chords & Tabs

 

Stacys Mom Chords & Tabs

Fountains Of Wayne Chords & Tabs

Version: 5 Type: Bass Tab 0 ratings
1 star 2 stars 3 stars 4 stars 5 stars
comments

Stacys Mom Bass Tab

   
Normal tuning: G,D,A,E

Intro:
G|-----------------|
D|-----------------|  x6
A|---------67------|
E|000555557--55555-|

"Stacy can I come over after school"
Verse:    (0:25)
G|-----------------|
D|-----------------| x8
A|-----------------|
E|0005555577755555-|

"You know I'm not the little boy that I used to be"
Prechorus:    (0:57)
G|------------------------------|
D|------------------------------|
A|------------------------------|
E|44444444555555554444444455555-|

"Stacy's mom has got it going on"
Chorus:    (1:05)
G|-------------------|
D|-------------------|   x3
A|-------------------|
E|-55-0-07779999-----|

G|-------------------|
D|-------------------|
A|-------------------|
E|-7777777755555555—-|

"Stacy's mom has got it going on"
           (1:21)
G|-----------------|
D|-----------------|  x2
A|---------67------|
E|000555557--55555-|

“Stacy, do you remember when I”
Verse:     (1:29)
G|-----------------|
D|-----------------|  x8
A|-----------------|
E|0005555577755555-|

"And I know that you think it's just a fantasy"
Prechorus:   (2:02)
G|------------------------------|
D|------------------------------|
A|------------------------------|
E|44444444555555554444444455555-|
[ Tab from: http://www.guitartabs.cc/tabs/f/fountains_of_wayne/stacys_mom_btab_ver_5.html ]
"Stacy's mom has got it going on"
Chorus:    (2:10)
G|-------------------|
D|-------------------|   x3
A|-------------------|
E|-55-0-07779999-----|

G|-------------------|
D|-------------------|
A|-------------------|
E|-7777777755555555—-|


When solo:     (2:26)
G|-----------------------------------|
D|-----------------------------------|
A|-3-3-3----------5-5-5---7-7--------|
E|--------3-33-----------------------|

G|-----------------------------------|
D|-----------------------------------|
A|-3-3-3---------6-7-6-7-6-7-6-------|
E|-------3--3-3----------------------|

G|-----------------------------------|
D|-----------------------------------|
A|-3-3-3----------5-5-5---7-7---53---|
E|--------3-33-----------------------|


G|-----------------------------------|
D|-----------------------------------|
A|-3-3-3-3-3-3-3-3-5-5-5-5-5-5-5-5---|
E|-----------------------------------|

"Stacy's mom has got it going on"
Chorus:    (2:42)
G|-------------------|
D|-------------------|   x3
A|-------------------|
E|-55-0-07779999-----|
                                    *Play last chorus 2 times*
G|-------------------|
D|-------------------|
A|-------------------|
E|-7777777755555555—-|


It's really a easy song, even for me who's just played bass for a month. This is the 
song I've tabbed, so if you have any modifications just mail me...

torstein4president@hotmail.com
Comments