Fountains Of Wayne - Stacys Mom Chords & Tabs

 

Stacys Mom Chords & Tabs

Fountains Of Wayne Chords & Tabs

Version: 4 Type: Bass Tab 0 ratings
1 star 2 stars 3 stars 4 stars 5 stars
comments

Stacys Mom Bass Tab

   
---------------------------------------------------------------------------
	              STACYS MOM - Fountains Of Wayne
---------------------------------------------------------------------------

Tabbed By : Dorris
e-mail: cleandirt2001@hotmail.com

Comments:its not 100% or even close but at least rate it


INTRO AND VERSE               do this with the non p.m. notes with guitar
G|------------------------------------------------------------------------|
D|------------------------------------------------------------------------|
A|--------7--------7--------7--------7---ETC.-----------------------------|
E|------------------------------------------------------------------------|

PRE-CHORUS
G|------------------------------------------------------------------------|
D|------------------------------------------------------------------------|
A|------------------------------------------------------------------------|
E|-4-4-4-4-4-4-4-4-5-5-5-5-5-5-5-5-----4-4-4-4-4-4-4-4-5-5-5-5-5----------|
[ Tab from: http://www.guitartabs.cc/tabs/f/fountains_of_wayne/stacys_mom_btab_ver_4.html ]
CHORUS 1 & 2
G|------------------------------------|
D|------------------------------------|DO THIS
A|-0-0-0--2--2-2-----------2--2-2/4-4-|2X THEN
E|----------------0--0-0--------------|

G|------------------------------------|
D|------------------------------------|
A|-0-0-0--2--2-2-----------3--3-3/4-4-|
E|----------------0--0-0--------------|

G|------------------------------------|
D|------------------------------------|
A|-0-0-0-0-0-0-0-0-2-2-2-2-2-2-2-2----|
E|------------------------------------|

THEN DO THE VERSE AGAIN

CHORUS

BACKING FOR SOLO
G|-----------------------------------|
D|-----------------------------------|DO THIS
A|-3-3-3-5----------5-5-5--5-5/7-7---|2X THEN
E|---------3--3-3--------------------|

G|-----------------------------------|
D|-----------------------------------|
A|-3-3-3-5--------5-5-6--6-6/7-------|
E|---------3--3-3--------------------|

G|-----------------------------------|
D|-----------------------------------|
A|-3-3-3-3-3-3-3-3-5-5-5-5-5-5-5-5---|
E|-----------------------------------|
DO ALL OF THE BACKING FOR THE SOLO AGAIN AND THEN U GET THE 
LAST CHORUS


| /  slide up
| \  slide down
| h  hammer-on
| p  pull-off
| ~  vibrato
| +  harmonic
| x  Mute note
============================================================================
Comments