Fountains Of Wayne - Stacys Mom Chords & Tabs

 

Stacys Mom Chords & Tabs

Fountains Of Wayne Chords & Tabs

Version: 3 Type: Bass Tab 0 ratings
1 star 2 stars 3 stars 4 stars 5 stars
comments

Stacys Mom Bass Tab

verse:
-----------
-----------    
-----------
0--5--7--5-

prechorus:
------------------------------
------------------------------
------------------------------
44444444555555554444444455555-
[ Tab from: http://www.guitartabs.cc/tabs/f/fountains_of_wayne/stacys_mom_btab_ver_3.html ]
chorus
--------------------------------------------------------
--------------------------------------------------------
----2--2--4-----------2--2--4-------33334---------------
5-0---4--4----5-0---4---4-------5-0---------55555-77777-


solo:
----------------------------------
----------------------------------
----5--5--7---------------5--5--7-
8-3---7--7---8-3-7~~~~8-3---7--7--

thats all i got right now... im trying to figure out how the ending goes, I
should get that figured out soon enough... hope u enjoy it.  dont be afraid
to tell me if u see something wrong.
Comments