Foundations - Build Me Up Buttercup Chords & Tabs

 

Build Me Up Buttercup Chords & Tabs

Foundations Chords & Tabs

Version: 2 Type: Bass Tab 0 ratings
1 star 2 stars 3 stars 4 stars 5 stars
comments

Build Me Up Buttercup Bass Tab

Song: Build Me Up Buttercup
Artist: The Foundations
Album: Unknown
_________________________________________________________________

-No bass in intro-
(* = let ring)
	                                         
G|----------|---------|---------|---------------------------------|
D|----------|---------|---------|---------------------------------|  Intro
A|--3--3-3--|---------|---------|---------------------------------|
E|----------|-0--0-0--|-1--1-1--|-3-3-3-3-3-3-3-3-3-3-3-3-3-3-3-3-|


G|----------|---------|---------|--------|
D|----------|---------|---------|--------|  Chorus (2x)
A|--3--3-3--|---------|---------|--------|
G|----------|-0--0-0--|-1--1-1--|-3--3-3-|

  
G|----------|---------|-----------------|
D|----------|---------|-----------------|    Bridge
A|--3--3-3--|-1--1-1--|-----------------|
E|----------|---------|-5--5-5---4--4-4-|

  
G|----------|-------------|-----------------|
D|----------|-------------|-----------------|
A|--3--3-3--|-------------|-----------------|
E|----------|-3--3-3---1*-|-3-3-3-3-3-3-3-3-|
[ Tab from: http://www.guitartabs.cc/tabs/f/foundations/build_me_up_buttercup_btab_ver_2.html ]
   
G|------------|--------------|--------------|-------------|
D|------------|--------------|--------------|-------------|   Verse
A|--3---------|----1---------|----3---------|----5--------|
E|---------3--|-----------1--|-----------3--|-----------3-|


G|------------|--------------|---------------|---------|--------|
D|------------|--------------|---------------|---------|--------|
A|--3---------|----1---------|----3*---------|---------|--------|
E|---------3--|-----------1--|-----------3-2-|-0--0-0--|-0--0-0-|


G|----------------|--------------|---------|-------------|
D|----------------|--------------|---------|-------------|
A|----------------|--------------|---------|-------------|
E|--3-3---3--3-3--|-3--3-3---3-2-|-0--0-0--|-3--3-3---1*-|

  
G|----------|---------|-----------------|
D|----------|---------|-----------------|    Outro
A|--5--5-5--|-3--3-3--|-----------------|
E|----------|---------|-7--7-7---6--6-6-|

  
G|----------|---------|-----------------|
D|----------|---------|-----------------|
A|--5--5-5--|---------|-10---9---7--5*--|
E|----------|-5--5-5--|-----------------|
_______________________________________________________________________

Tabbed by ~Loxley~ (Robin Espersen)
Love letters can be sent to me at: LeperMessiah@forum.dk
Comments