Foster The People - Houdini Chords & Tabs

 

Houdini Chords & Tabs

Foster The People Chords & Tabs

Version: 1 Type: Bass Tab 0 ratings
1 star 2 stars 3 stars 4 stars 5 stars
comments

Houdini Bass Tab

I figured this out by ear, it may not be right
Don't know if the timings are right, they're probably very wrong. The tab doesn't 
even line up. Oh well
Tuning is in drop D


Waiting for the piano to start
When it starts, play this       OR
G|-----------------------|           G|------------------------|
D|-----------------------|           D|------------------------|
A|-3---------------------|           A|------------------------|
D|----5-5--6--1--1-1--5--|x3         D|-10--5-5--6--1--1-1--5--|x3
                                OR
G|-----------------------|           G|------------------------|
D|-----------------------|           D|------------------------|
A|-3---------------------|           A|------------------------|
D|----5-5--6--1--1-1-----|x1         D|-10--5-5--6--1--1-1-----|x1

Verse
G|----------------------------------------------|
D|----------------------------------------------|
A|----------------------------------------------|
D|-10--5-5--6--1--1-1--5--10--5-5--6--1--1-1--5-|x2

Chorus
G|---------------------------------------------|
D|---------------------------------------------|
A|---------------------------------------------|
D|-1--3-5--8--9--9-9--3--1--3-5--8--9--9-9--11-|x2
[ Tab from: http://www.guitartabs.cc/tabs/f/foster_the_people/houdini_btab.html ]
Verse 2
G|----------------------------------------------|
D|----------------------------------------------|
A|----------------------------------------------|
D|-10--5-5--6--1--1-1--5--10--5-5--6--1--1-1--0-|x1

G|------------------------|
D|------------------------|
A|------------------------|
D|-10--5-5--6--1--1-1--5--|x6

Chorus
G|---------------------------------------------|
D|---------------------------------------------|
A|---------------------------------------------|
D|-1--3-5--8--9--9-9--3--1--3-5--8--9--9-9--11-|x2

Verse
G|----------------------------------------------|
D|----------------------------------------------|
A|----------------------------------------------|
D|-10--5-5--6--1--1-1--0--10--5-5--6--1--1-1--5-|x2

(Raise up to your ability)
G|----------------------------------------------|
D|----------------------------------------------|
A|----------------------------------------------|
D|-10--5-5--6--1--1-1--0--10--5-5--6--1--1-1--5-|x4


Focus on your ability/Can't they get...
G|--------------------------------------------|
D|--------------------------------------------|
A|--------------------------------------------|
D|-6--6-6--1--8--8-8--5--6--6-6--5--8--8-8--5-|x2

Outro
G|------------------------|
D|------------------------|
A|------------------------|
D|-10--5-5--6--1--1-1--5--|x3

G|------------------------|
D|------------------------|
A|------------------------|
D|-10--5-5--6--1--1-1-----|x1

Voila!
Comments