Foster The People - Helena Beat Chords & Tabs

 

Helena Beat Chords & Tabs

Foster The People Chords & Tabs

Version: 4 Type: Bass Tab 0 ratings
1 star 2 stars 3 stars 4 stars 5 stars
comments

Helena Beat Bass Tab

   
G|--------|--------|--------|---------|
D|-3-5-1--|--------|--------|---------|
A|--------|-4-6-8--|11------|---------|
E|--------|--------|--------|---------|
[ Tab from: http://www.guitartabs.cc/tabs/f/foster_the_people/helena_beat_btab_ver_4.html ]
G|--------|--------|--------|----------|
D|-3-5-1--|--------|--------|----------|
A|--------|-4-6---11 -10-8--|----------|
E|--------|--------|--------|----------|

Repeat :D
Comments