Foster The People - Dont Stop Color On The Walls Chords & Tabs

 

Dont Stop Color On The Walls Chords & Tabs

Foster The People Chords & Tabs

Version: 2 Type: Tab 0 ratings
1 star 2 stars 3 stars 4 stars 5 stars
comments

Dont Stop Color On The Walls Tab

   
Foster the People - Don't Stop

Tabbed by: Geldkwestie
Tuning: Drop D

This tab is transcribed from an acoustic version from Youtube:
http://www.youtube.com/watch?v=4QX1rDyrGgo


Intro
e|-----------------------------------------------------------------     ---|
B|---------------------------------------------12-12---------------     ---|
G|-8---8-8---8---8-10-8-10-8-8---6-6---11-11---x--x----6---6-6-6-6-     -8-|
D|-9---9-9---9---9-9--9-9--9-9---7-7---12-12---12-12---7---7-7-7-7-4x   -9-|
A|-9---9-9---9---9-9--9-9--9-9---7-7---12-12---10-10---7---7-7-7-7-     -9-|
D|-9---9-9---9---9-9--9-9--9-9---7-7---12-12-----------7---7-7-7-7-     -9-|

Verse
e|-------------|
B|-------------|
G|-x-x-6-6/8-8-|
D|-x-x-7-7/9-9-|
A|-x-x-7-7/9-9-|
D|-x-x-7-7/9-9-|

e|--------------------------------------------------------------------------|
B|-------------------------------------------------------12-12--------------|
G|-x-x-6-6/8-8---8-8---8---8-10-8-10-8-8---6-6---11-11---x--x---6---6-6-6-6-|
D|-x-x-7-7/9-9---9-9---9---9-9--9-9--9-9---7-7---12-12---12-12--7---7-7-7-7-|
A|-x-x-7-7/9-9---9-9---9---9-9--9-9--9-9---7-7---12-12---10-10--7---7-7-7-7-|
D|-x-x-7-7/9-9---9-9---9---9-9--9-9--9-9---7-7---12-12----------7---7-7-7-7-|

e|---------------------------------|
B|---------------------------------|
G|-8---8-8---8---8-10-8-10-8-8---6-|
D|-9---9-9---9---9-9--9-9--9-9---7-|
A|-9---9-9---9---9-9--9-9--9-9---7-|
D|-9---9-9---9---9-9--9-9--9-9---7-|

Chorus
e|---------------------------|
B|---------------------------|
G|-4---4-4---4-4---4-6-9-6-4-|
D|-5---5-5---5-5---5-7-7-7-5-|2x
A|-5---5-5---5-5---5-7-7-7-5-|
D|-5---5-5---5-5---5-7-7-7-5-|

e|-----------------------------------------------------------------     ---|
B|---------------------------------------------12-12---------------     ---|
G|-8---8-8---8---8-10-8-10-8-8---6-6---11-11---x--x----6---6-6-6-6-     -8-|
D|-9---9-9---9---9-9--9-9--9-9---7-7---12-12---12-12---7---7-7-7-7-2x   -9-|
A|-9---9-9---9---9-9--9-9--9-9---7-7---12-12---10-10---7---7-7-7-7-     -9-|
D|-9---9-9---9---9-9--9-9--9-9---7-7---12-12-----------7---7-7-7-7-     -9-|

Verse
e|-------------|
B|-------------|
G|-x-x-6-6/8-8-|
D|-x-x-7-7/9-9-|
A|-x-x-7-7/9-9-|
D|-x-x-7-7/9-9-|
[ Tab from: http://www.guitartabs.cc/tabs/f/foster_the_people/dont_stop_color_on_the_walls_tab_ver_2.html ]
e|--------------------------------------------------------------------------|
B|-------------------------------------------------------12-12--------------|
G|-x-x-6-6/8-8---8-8---8---8-10-8-10-8-8---6-6---11-11---x--x---6---6-6-6-6-|
D|-x-x-7-7/9-9---9-9---9---9-9--9-9--9-9---7-7---12-12---12-12--7---7-7-7-7-|
A|-x-x-7-7/9-9---9-9---9---9-9--9-9--9-9---7-7---12-12---10-10--7---7-7-7-7-|
D|-x-x-7-7/9-9---9-9---9---9-9--9-9--9-9---7-7---12-12----------7---7-7-7-7-|

e|---------------------------------|
B|---------------------------------|
G|-8---8-8---8---8-10-8-10-8-8---6-|
D|-9---9-9---9---9-9--9-9--9-9---7-|
A|-9---9-9---9---9-9--9-9--9-9---7-|
D|-9---9-9---9---9-9--9-9--9-9---7-|

Chorus
e|---------------------------|
B|---------------------------|
G|-4---4-4---4-4---4-6-9-6-4-|
D|-5---5-5---5-5---5-7-7-7-5-|4x
A|-5---5-5---5-5---5-7-7-7-5-|
D|-5---5-5---5-5---5-7-7-7-5-|

e|-----------------------------------------------------------------|
B|---------------------------------------------12-12---------------|
G|-8---8-8---8---8-10-8-10-8-8---6-6---11-11---x--x----6---6-6-6-6-|
D|-9---9-9---9---9-9--9-9--9-9---7-7---12-12---12-12---7---7-7-7-7-|2x
A|-9---9-9---9---9-9--9-9--9-9---7-7---12-12---10-10---7---7-7-7-7-|
D|-9---9-9---9---9-9--9-9--9-9---7-7---12-12-----------7---7-7-7-7-|

Bridge
e|-----------------------------------------------------------------|
B|---------------------------------------------12-12---------------|
G|-8---8-8---8---8-10-8-10-8-8---6-6---11-11---x--x----6---6-6-6-6-|
D|-9---9-9---9---9-9--9-9--9-9---7-7---12-12---12-12---7---7-7-7-7-|
A|-9---9-9---9---9-9--9-9--9-9---7-7---12-12---10-10---7---7-7-7-7-|
D|-9---9-9---9---9-9--9-9--9-9---7-7---12-12-----------7---7-7-7-7-|

e|-------------------------------------------------------------------|
B|-------------------------------------------------------12-12-12-12-|
G|-8---8-8---8---8-10-8-10-8-8---6-6-6-6---11-11-11-11---x--x--x--x--|
D|-9---9-9---9---9-9--9-9--9-9---7-7-7-7---12-12-12-12---12-12-12-12-|
A|-9---9-9---9---9-9--9-9--9-9---7-7-7-7---12-12-12-12---10-10-10-10-|
D|-9---9-9---9---9-9--9-9--9-9---7-7-7-7---12-12-12-12---------------|

e|-------------|
B|-------------|
G|-6-6-6-6---4-|
D|-7-7-7-7---5-|
A|-7-7-7-7---5-|
D|-7-7-7-7---5-|

Outro
e|---------------------------------------|
B|---------------------------------------|
G|-444---4---444---4---444---4---446-8-6-|
D|-555---5---555---5---555---5---557-7-7-|
A|-555---5---555---5---555---5---557-7-7-|
D|-555---5---555---5---555---5---557-7-7-|


************************************

| /   slide up
| \   slide down
| h   hammer-on
| p   pull-off
| ~   vibrato
| +   harmonic
| x   Mute note
| b   Bend
| pb  Pre-bend
| br  Bend release
| pbr Pre-bend release
| brb Bend release bend

************************************
Comments