Foster The People - Dont Stop Color On The Walls Chords & Tabs

 

Dont Stop Color On The Walls Chords & Tabs

Foster The People Chords & Tabs

Version: 2 Type: Bass Tab 0 ratings
1 star 2 stars 3 stars 4 stars 5 stars
comments

Dont Stop Color On The Walls Bass Tab

Artist: Foster The People
Album: Torches
Song: Don't Stop (Color On The Walls)

Tabbed by : magicberu/frenchboy

Tuning: Standard (EADG)


Verse 1 (x3):


G|-------------------4-------------------------------------------------------|
D|-----------------6---6--------------5-4-5-7--------------------------------|
A|------------------------------5--5-----------------------------------------|
E|7---7-7--7--7--7--------5--5----------------5-5----------------------------|


The last time:

G|-------------------4-------------------------------------------------------|
D|-----------------6---6-----------------------------------------------------|
A|---------------------------------------------------------------------------|
E|7---7-7--7--7--7--------5--------------------------------------------------|



Chorus 1:

G|---------------------------------------------------------------------------|
D|---------------------------------------------------------------------------|
A|---------------------5-----------------------------------------------------|
E|-3---0-3--0-3--0--7---7--3---0-3--0-3--0-5-5-5-----------------------------|

G|-------------------4-------------------------------------------------------|
D|-----------------6---6--------------5-4-5-7--------------------------------|
A|------------------------------5--5-----------------------------------------|
E|7---7-7--7--7--7--------5--5----------------5-5----------------------------|

G|-------------------4-------------------------------------------------------|
D|-----------------6---6-----------------------------------------------------|
A|---------------------------------------------------------------------------|
E|7---7-7--7--7--7--------5--------------------------------------------------|


Verse 2 (same as verse 1)


Chorus 2:
[ Tab from: http://www.guitartabs.cc/tabs/f/foster_the_people/dont_stop_color_on_the_walls_btab_ver_2.html ]
G|---------------------------------------------------------------------------|
D|---------------------------------------------------------------------------|
A|---------------------5-----------------------------------------------------|
E|-3---0-3--0-3--0--7---7--3---0-3--0-3--0-5-5-5-----------------------------|

G|---------------------------------------------------------------------------|
D|---------------------------------------------------------------------------|
A|---------------------5-----------------------------------------------------|
E|-3---0-3--0-3--0--7---7--3---0-3--0-3--0-5-5-5-----------------------------|


Instrumental/guitar part (x4):

G|-------------------4-------------------------------------------------------|
D|-----------------6---6--------------5-4-5-7--------------------------------|
A|------------------------------5--5-----------------------------------------|
E|7---7-7--7--7--7--------5--5----------------5-5----------------------------|

Final part (2:17):

G|---------------------------------------------------------------------------|
D|---------------------------------------------------------------------------|
A|---------------------------------------------------------------------------|
E|-3-------------0-3---------------0-3---------------0-3---------------0-3---|

G|---------------------------------------------------------------------------|
D|---------------------------------------------------------------------------|
A|---------------------5-----------------------------------------------------|
E|-3---0-3--0-3--0--7---7--3---0-3--0-3--0-5-5-5-----------------------------|

G|---------------------------------------------------------------------------|
D|------------------------------------5-5-4-4-2-2-0-0------------------------|
A|---------------------5------------------------------2----------------------|
E|-3---0-3--0-3--0--7---7--3---0-3--0----------------------------------------|
Comments